We The Kings

Rain Falls Down

We The Kings

5 exibições
  • Violão
  • Guitarra
  • Teclado
  • Cavaquinho
  • Contra-baixo
  • Bateria
  • Gaita
  • Guitar Pro
Intro/Verse:
Guitar 1/ Lead
e|-----------------------------------|
B|-7-(14x)-5-(14x)-10-(14x)-3-(14x)--|
G|-----------------------------------| 4x
D|-----------------------------------|
A|-----------------------------------|
E|-----------------------------------|

Guitar 2/ Rhythm
"I'm only sure one thing, that's you rite now.."
|-----2-----------2---------------------|
|---3-----------3-----------------------|
|-2-----------2-------------------------|
|---------------------------------------|
|---------------------------------------|
|---------------------------------------|

"I hear your voice and what we talk about..."
|-----3-----------3---------------------|
|---3-----------3-----------------------|
|-2-----------2-------------------------|
|---------------------------------------|
|---------------------------------------|
|---------------------------------------|

"And I'm trying to say what wont come out..."
|-----5-----------5---------------------|
|---3-----------3-----------------------|
|-2-----------2-------------------------|
|---------------------------------------|
|---------------------------------------|
|---------------------------------------|

Yeah I'm tryin to fix this broken mouth
|-----0-----------0---------------------|
|---3-----------3-----------------------|
|-2-----------2-------------------------|
|---------------------------------------|
|---------------------------------------|
|---------------------------------------|

Chorus
Guitar 1/Lead  (The last power chord mite be only 6x)
e|-----------------------------------------|
B|-----------------------------------------|
G|--------7-7-7----------------------------|
D|-9-9-9--5-5-5--7-7-7-7-7-7-7-7-7---------| 3x then
A|-7-7-7---------5-5-5-5-5-5-5-5-5---------|
E|-----------------------------------------|

|-----------------------------------------|
|-----------------------------------------|
|--------7-7-7----------------------------|
|-9-9-9--5-5-5--5-5-5-5-5-5---------------|
|-7-7-7---------3-3-3-3-3-3---------------|
|-----------------------------------------|
And do that whole thing 2x

Guitar 2/ Rhythm (P.S. I just made this up to kinda keep beat, you don't have to play this)
|--------------------------------------------|
|--------------------------------------------|
|-7-------5-------9-------7------------------|
|-7--16x--5--16x--9--16x--7--16x-------------|
|-5-------3-------7-------5------------------|
|--------------------------------------------|


Enviada por Sem inscrição
Nº de acordes: 0