Victor e Leo

Borboletas

Victor e Leo

12.440 exibições
Capotraste traste na casa 2

SOLO DE INICIO 
obs : algumas versoes da musica nao possuem esse solo entao basta tocar a introducao.


E------------------|------------------3------------------                                 B---------0p2h0----|---------0p20--------3--0--0---------
G-------2-------2--|-------2------2----------------------
D---0p2-----------2|---0p2-------------------------------
A------------------|-------------------------------------
E------------------|-------------------------------------

SOLO PARA ACOMPANHAMENTO: (Am C Am F G)  2 tempos em cada nota

E--------------------------------------------------------
B--------------------------------------------------------
G---2222222222222222222222222222222----------------------
D---0 0 2 2 0 0 2 2 0 2 0 0 0 2 2 2 ---------------------
A--------------------------------------------------------
E--------------------------------------------------------

E--------------------------------------------------------
B--------------------------------------------------------
G---0000000000000000000000000000000----------------------
D---2 2 0 0 2 2 0 0 2 0 2 2 2 0 0 0 ---------------------
A--------------------------------------------------------
E--------------------------------------------------------

E--------------------------------------------------------
B-------1 1 0 0 1 1 0 1 0 0 1 1--------------------------
G---0 2 -------------------------------------------------
D--------------------------------------------------------
A--------------------------------------------------------
E--------------------------------------------------------


        (5X)
E
B
G-------|-2---|---------12--12-----------14--14--------7--6
D---3---|---3-|---------12--12-----------14--14------7-----
A---3---------------10---------------12------------7-------
E----------------10---------------12---------------5-------

   Am                       C                          G         Am
Percebo que o tempo ja nao passa voce diz que nao tem graça     Amar assim
                         C                    G             Am
Foi tudo tao bonito mas voou pro infinito parecido com borboletas de um jardim

G---4p5h4--0--2
Dm          F         C                         G
Agora voce volta e balanca o que eu sentia por outro alguem

B---3-4-5-6---

Dm                   F                      G                   Am
Dividido entre dois mundos, sei que estou amando mas ainda nao sei quem

REFRAO
           F           C       G           Am
Nao sei dizer o que mudou mas nada esta igual
      F                C          G            Am
Numa noite estranha a gente se estranha e fica mal
  F            C       G             Am
Voce tenta provar que tudo em nos morreu
     F             C          G
Borboletas sempre voltam e o seu jardim sou eu

Solo: (Am C Am) F (G) 2 tempos nas cifras que estao entre parenteses
  
   
(         4X             )
E--14--14--14----15--15--15  |-12  12  12  10  9   |
B----15--15--15---15--15--15 |---14  14  14  12 10 |


REPETE TUDO INCLUSIVE O SOLO


Enviada por Sem inscrição
Nº de acordes: 7