Intro: 
 e|------------------------------3----|------------------------------3----|
 B|------5------5------5------5----5--|------5------5------5------5----5--|
 G|-----------------------------------|-----------------------------------|
 D|-----------------------------------|-----------------------------------|
 A|--3------3------3------3-----------|--3------3------3------3-----------|
 E|-----------------------------------|-----------------------------------|

 e|------------------------------3----|-----------------------------------|
 B|------5------5------5------5----5--|------5------5---------------------|
 G|-----------------------------------|-----------------------------------|
 D|--3------3------3------3-----------|-----------------------------------|
 A|-----------------------------------|--3------3------3------------------|
 E|-----------------------------------|-----------------------------------|

 e|-----------------------------------|-----------------------------------|
 B|-----------------------------------|-----------------------------------|
 G|-----------------------------------|-----------------------------------|
 D|-----------------------------------|-----------------------------------|
 A|--7-7-7-7-7-7-7-7-7-7-7-7-7-7-5-5--|--3-3-3-3-3-3-3-3-3-3-3-3-3/5-5-5--|
 E|-----------------------------------|-----------------------------------|

 e|-----------------------------------|-----------------------------------|
 B|-----------------------------------|-----------------------------------|
 G|-----------------------------------|-----------------------------------|
 D|-----------------------------------|-----------------------------------|
 A|--7-7-7-7-7-7-7-7-7-7-7-7-7-7-5-5--|--3-3-3-3-3-3-3/5------------------|
 E|-----------------------------------|-----------------------------------|

Verse 1:
 e|-----------------------------------|-----------------------------------|
 B|-----------------------------------|-----------------------------------|
 G|-----------------------------------|-----------------------------------|
 D|-----------------------------------|-----------------------------------|
 A|--7-7-7-7-7-7-7-7-7-7-7-7-7-7-5-5--|--3-3-3-3-3-3-3-3-3-3-3-3-3/5-5-5--|
 E|-----------------------------------|-----------------------------------|

 e|-----------------------------------|-----------------------------------|
 B|-----------------------------------|-----------------------------------|
 G|-----------------------------------|-----------------------------------|
 D|-----------------------------------|-----------------------------------|
 A|--7-7-7-7-7-7-7-7-7-7-7-7-7-7-5-5--|--3-3-3-3-3-3-3-3-3-3-3-3-3/5-5-5--|
 E|-----------------------------------|-----------------------------------|

 e|-----------------------------------|-----------------------------------|
 B|-----------------------------------|-----------------------------------|
 G|-----------------------------------|-----------------------------------|
 D|-----------------------------------|-----------------------------------|
 A|--7-7-7-7-7-7-7-7-7-7-7-7-7-7-5-5--|--3-3-3-3-3-3-3-3-3-3-3-3-3/5-5-5--|
 E|-----------------------------------|-----------------------------------|

 e|-----------------------------------|-----------------------------------|
 B|-----------------------------------|-----------------------------------|
 G|-----------------------------------|-----------------------------------|
 D|-----------------------------------|-----------------------------------|
 A|--7-7-7-7-7-7-7-7-7-7-7-7-7-7-5-5--|--3-3-3-3-3-3-3/5------------------|
 E|-----------------------------------|-----------------------------------|

Chorus 1:
 e|-----------------------------------|-----------------------------------|
 B|-----------------------------------|-----------------------------------|
 G|-----------------------------------|-----------------------------------|
 D|-----------------------------------|-----------------------------------|
 A|--3-3-3-3/5-5-5-5/7-7-7-7/8-8-8-8\-|--3-3-3-3/5-5-5-5/7-7-7-7/8-8-8-8\-|
 E|-----------------------------------|-----------------------------------|

 e|-----------------------------------|-----------------------------------|
 B|-----------------------------------|-----------------------------------|
 G|-----------------------------------|-----------------------------------|
 D|-----------------------------------|-----------------------------------|
 A|--3-3-3-3/5-5-5-5/7-7-7-7/8-8-8-8\-|--3-3-3-3/5-5-5-5/7-7-7-7/8--------|
 E|-----------------------------------|-----------------------------------|

 e|-----------------------------------|-----------------------------------|
 B|-----------------------------------|-----------------------------------|
 G|-----------------------------------|-----------------------------------|
 D|-----------------------------------|-----------------------------------|
 A|--3/7----7-7-7---7---7---7-7/8--8--|--3-----3-3-3---3/5---5---5-5/7----|
 E|-----------------------------------|-----------------------------------|

 e|-----------------------------------|-----------------------------------|
 B|-----------------------------------|-----------------------------------|
 G|-----------------------------------|-----------------------------------|
 D|-----------------------------------|-----------------------------------|
 A|--3-3-3-3/5-5-5-5/7-7-7-7/8-8-8-8\-|--3-3-3-3/5-5-5-5/7-7-7-7/8--------|
 E|-----------------------------------|-----------------------------------|

Verse 2:
 e|-----------------------------------|-----------------------------------|
 B|-----------------------------------|-----------------------------------|
 G|-----------------------------------|-----------------------------------|
 D|-----------------------------------|-----------------------------------|
 A|--7-7-7-7-7-7-7-7-7-7-7-7-7-7-5-5--|--3-3-3-3-3-3-3-3-3-3-3-3-3/5-5-5--|
 E|-----------------------------------|-----------------------------------|

 e|-----------------------------------|-----------------------------------|
 B|-----------------------------------|-----------------------------------|
 G|-----------------------------------|-----------------------------------|
 D|-----------------------------------|-----------------------------------|
 A|--7-7-7-7-7-7-7-7-7-7-7-7-7-7-5-5--|--3-3-3-3-3-3-3-3-3-3-3-3-3/5-5-5--|
 E|-----------------------------------|-----------------------------------|

 e|-----------------------------------|-----------------------------------|
 B|-----------------------------------|-----------------------------------|
 G|-----------------------------------|-----------------------------------|
 D|-----------------------------------|-----------------------------------|
 A|--3/7----7-7-7---7---7---7-7/8--8--|--3-----3-3-3---3/5---5---5-5/7----|
 E|-----------------------------------|-----------------------------------|

 e|-----------------------------------|-----------------------------------|
 B|-----------------------------------|-----------------------------------|
 G|-----------------------------------|-----------------------------------|
 D|-----------------------------------|-----------------------------------|
 A|--3-3-3-3/5-5-5-5/7-7-7-7/8-8-8-7--|--3-3-3-3/5-5-5-5/7-7-7-7/8--------|
 E|-----------------------------------|-----------------------------------|

Chorus 2:
 e|-----------------------------------|-----------------------------------|
 B|-----------------------------------|-----------------------------------|
 G|-----------------------------------|-----------------------------------|
 D|-----------------------------------|-----------------------------------|
 A|--3-3-3-3/5-5-5-5/7-7-7-7/8-8-8-8\-|--3-3-3-3/5-5-5-5/7-7-7-7/8-8-8-8\-|
 E|-----------------------------------|-----------------------------------|

 e|-----------------------------------|-----------------------------------|
 B|-----------------------------------|-----------------------------------|
 G|-----------------------------------|-----------------------------------|
 D|-----------------------------------|-----------------------------------|
 A|--3-3-3-3/5-5-5-5/7-7-7-7/8-8-8-7--|--3-3-3-3/5-5-5-5/7-7-7-7/8--------|
 E|-----------------------------------|-----------------------------------|

 e|-----------------------------------|-----------------------------------|
 B|-----------------------------------|-----------------------------------|
 G|-----------------------------------|-----------------------------------|
 D|-----------------------------------|-----------------------------------|
 A|--3/7----7-7-7---7---7---7-7/8--8--|--3-----3-3-3---3/5---5---5-5/7-7--|
 E|-----------------------------------|-----------------------------------|

 e|-----------------------------------|
 B|-----------------------------------|
 G|-----------------------------------|
 D|-----------------------------------|
 A|--3--------------------------------|
 E|-----------------------------------|


Enviada por Sem inscrição
Nº de acordes: 0