The Xx

Shelter

The Xx

220 exibições
(First verse) I find shelter...

e|---------------------------------------------------------------------------|
B|---------------------------------------------------------------------------|
G|---------------------------------------------------------------------------|
D|-10----14(x6)--------------------------------------------------------------|
A|---------------------------------------------------------------------------|
E|---------------------------------------------------------------------------|


(chorus- all palm muted) Maybe I had said... 

e|---------------------------------------------------------------------------|
B|---------------------------------------------------------------------------|
G|---------------------------------------------------------------------------|
D|--7777777777777777/3333333333333333/2222222222222222/3333333333333333-(x2)-|
A|--8888888888888888/5555555555555555/0000000000000000/3333333333333333-(x2)-|
E|---------------------------------------------------------------------------|



e|---------------------------------------------------------------------------|
B|---------------------------------------------------------------------------|
G|-10-10-9-------------10-10-9-------------------10-10-9---------------------|
D|---------10-7-77-77----------10-7/10-1010-1010---------10-10/17-1717-1717--|
A|---------------------------------------------------------------------------|
E|---------------------------------------------------------------------------|

e|---------------------------------------------------------------------------|
B|---------------------------------------------------------------------------|
G|---1010-9------------------------------------------------------------------|
D|----------10-10-10-9-------------------------------------------------------|
A|---------------------------------------------------------------------------|
E|---------------------------------------------------------------------------|



(Second verse) Could I be...

e|---------------------------------------------------------------------------|
B|---------------------------------------------------------------------------|
G|---------------------------------------------------------------------------|
D|-10----14(x6)--------------------------------------------------------------|
A|---------------------------------------------------------------------------|
E|---------------------------------------------------------------------------|


(all palm muted) And I'll cross oceans...


e|---------------------------------------------------------------------------|
B|---------------------------------------------------------------------------|
G|---------------------------------------------------------------------------|
D|---------------------------------------------------------------------------|
A|-----12(x16)-8(x16)-5(x16)-3(x16)------------------------------------------|
E|---------------------------------------------------------------------------|

(Chorus) Maybe I had said...

e|---------------------------------------------------------------------------|
B|---------------------------------------------------------------------------|
G|---------------------------------------------------------------------------|
D|--7777777777777777/3333333333333333/2222222222222222/3333333333333333-(x2)-|
A|--8888888888888888/5555555555555555/0000000000000000/3333333333333333-(x2)-|
E|---------------------------------------------------------------------------|


e|---------------------------------------------------------------------------|
B|---------------------------------------------------------------------------|
G|-10-10-9-------------10-10-9-------------------10-10-9---------------------|
D|---------10-7-77-77----------10-7/10-1010-1010---------10-10/17-1717-1717--|
A|---------------------------------------------------------------------------|
E|---------------------------------------------------------------------------|

e|---------------------------------------------------------------------------|
B|---------------------------------------------------------------------------|
G|---1010-9------------------------------------------------------------------|
D|----------10-10-10-9-------------------------------------------------------|
A|---------------------------------------------------------------------------|
E|---------------------------------------------------------------------------|


Enviada por Sem inscrição
Nº de acordes: 0