The Used

I Come Alive

The Used

78 exibições
  • Violão
  • Guitarra
  • Teclado
  • Cavaquinho
  • Contra-baixo
  • Bateria
  • Gaita
  • Guitar Pro
Tuning: Drop D

So, here we go!

Intro: 

First Guitar (PALM MUTE)
e|---------------------------------------------------------------------------|
B|---------------------------------------------------------------------------|
G|---------------------------------------------------------------------------|
D|-0-------3-3-3---11-------------FOUR TIMES--(On-fourth-11-just-4x)---------|
A|-0-(4x)--3-3-3---11-(8x)---------------------------------------------------|
D|-0-------3-3-3---11--------------------------------------------------------|
                   (^ eleven)

Second guitar (just last two times)
e|---------------------------------------------------------------------------|
B|-18~-18~-18~-17~-1515151515151515~-----------------------------------------|
G|---------------------------------------------------------------------------|
D|---------------------------------------------------------------------------|
A|---------------------------------------------------------------------------|
D|---------------------------------------------------------------------------|




VERSE (ALL PALM MUTE)

e|---------------------------------------------------------------------------|
B|---------------------------------------------------------------------------|
G|---------------------------------------------------------------------------|
D|-0------3------11-------5------3------8-------7------11--------------------|
A|-0-(4x)-3-(4x)-11-(4x)--5-(4x)-3-(4x)-8-(4x)--7-(4x)-11--(4x)--------------|
D|-0------3------11-------5------3------8-------7------11--------------------|


e|---------------------------------------------------------------------------|
B|---------------------------------------------------------------------------|
G|---------------------------------------------------------------------------|
D|-0------3------11-------5------3------8-------7------11--------------------|
A|-0-(4x)-3-(4x)-11-(4x)--5-(4x)-3-(4x)-8-(4x)--7-(4x)-11-\\\\-Slide-down----|
D|-0------3------11-------5------3------8-------7------11--------------------|


CHORUS

e|---------------------------------------------------------------------------|
B|---------------------------------------------------------------------------|
G|---------------------------------------------------------------------------|
D|--3-------2------0--------3-------2------0---------------------------------|
A|--3-(12x)-2-(4x)-0-(16x)--3-(12x)-2-(4x)-0-(16x)---------------------------|
D|--3-------2------0--------3-------2------0---------------------------------|


e|---------------------------------------------------------------------------|
B|---------------------------------------------------------------------------|
G|-3------5-------10---9---7---5---3----------------------------5------------|
D|-3-(4x)-5-(4x)--10---9---7---5---3-(8x)-\\\\\-Slide-down-from-5------------|
A|-1------3--------8---7---5---3---1----------------------------3------------|
D|---------------------------------------------------------------------------|


POST-CHORUS

Repeat INTRO guitar 1 (but just 2 times)


SECOND VERSE

No guitar, just bunch of electro sounds


CHORUS

Repeat


BRIDGE

e|------------------------------------------------------------------------------|
B|------------------------------------------------------------------------------|
G|------------------------------------------------------------------------------|
D|--8----------0--------------------------------------8-------------------------|
A|--8-(4x)-----0-(8x)--FOUR-TIMES-And-on-fifth-just---8-(4x)-)------------------|
E|--8------7b--0--------------------------------------8-------------------------|





BRIDGE 2 (when Bert goes: "keep your distance...")

PALM MUTE
e|---------------------------------------------------------------------------|
B|---------------------------------------------------------------------------|
G|---------------------------------------------------------------------------|
D|-0------3------11-------5------3------8-------7----------------------------|
A|-0-(4x)-3-(4x)-11-(4x)--5-(4x)-3-(8x)-8-(4x)--7-(4x)-----------------------|
D|-0------3------11-------5------3------8-------7----------------------------|


e|---------------------------------------------------------------------------|
B|---------------------------------------------------------------------------|
G|---------------------------------------------------------------------------|
D|-0------3------11-------5------3------8-------7-------11-------------------|
A|-0-(4x)-3-(4x)-11-(4x)--5-(4x)-3-(4x)-8-(4x)--7-(4x)--11-(4x)--------------|
D|-0------3------11-------5------3------8-------7-------11-------------------|


THEN NO PALM MUTE


e|---------------------------------------------------------------------------------|
B|---------------------------------------------------------------------------------|
G|---------------------------------------------------------------------------------|
D|-0------3------11-------5------3------8-------7-------11-------------------------|
A|-0-(4x)-3-(4x)-11-(4x)--5-(4x)-3-(4x)-8-(4x)--7-(4x)--11-(4x)--------------------|
D|-0------3------11-------5------3------8-------7-------11-------------------------|


e|---------------------------------------------------------------------------------|
B|---------------------------------------------------------------------------------|
G|---------------------------------------------------------------------------------|
D|-0------3------11-------5------3------8-------7-------11-------------------------|
A|-0-(4x)-3-(4x)-11-(4x)--5-(4x)-3-(4x)-8-(4x)--7-(4x)--11-(4x)--------------------|
D|-0------3------11-------5------3------8-------7-------11-------------------------|


CHORUS

e|---------------------------------------------------------------------------|
B|---------------------------------------------------------------------------|
G|---------------------------------------------------------------------------|
D|-3-------------------------------------------------------------------------|
A|-3-JUST-HIT-ONCE---SLIDE---THEN-CONTINUE-CHORUS-AS-NORMALLY----------------|
D|-3-------------------------------------------------------------------------|


Enviada por Sem inscrição
Nº de acordes: 0