The Temper Trap

Soldier On

The Temper Trap

182 exibições
  • Violão
  • Guitarra
  • Teclado
  • Cavaquinho
  • Contra-baixo
  • Bateria
  • Gaita
  • Guitar Pro
PART A
This is played almost the entire song
e|-----7----7------7----7-------0----0---------0------0-----|
B|------------7--------------------------10-----------------|
G|-----7-----7-----7-----7------11-----11------11------11---|
D|--9-----9-----9-----9-----12-----12------12------12-------|
A|----------------------------------------------------------|
E|----------------------------------------------------------|

e|-----2---2-------2---2-------0---0-------0---0------------|
B|-------------2-----------------------3--------------------|
G|-----2-----2-----2-----2-----4-----4-----4-----4----------|
D|--4-----4-----4-----4-----5-----5-----5-----5-------------|
A|----------------------------------------------------------|
E|----------------------------------------------------------|

At 1:58 Start here at
PART B
e|-----7----7------7----7-------0----0---------0------0-----|
B|------------7--------------------------10-----------------|
G|-----7-----7-----7-----7------11-----11------11------11---|
D|--9-----9-----9-----9-----12-----12------12------12-------|
A|----------------------------------------------------------|
E|----------------------------------------------------------|

e|-----2---2-------2---2-------0---0-------0----------------|
B|-------------2-----------2-----------3--------------------|
G|-----2-----2-----2-----2-----4-----4-----4----------------|
D|--4-----4-----4-----4-----5-----5-----5-----4--3----------|
A|----------------------------------------------------------|
E|----------------------------------------------------------|

e|-----0---0-------0-----------2---2-------2----------------|
B|-------------0----------------------2---------------------|
G|-----0-----0-----0-----------2-----2-----2----------------|
D|--2-----2-----------2--3--4-----4-----------4--3----------|
A|--------------2-----------------------4-------------------|
E|----------------------------------------------------------|

e|-----0---0-------0-----------2---2-------2----------------|
B|-------------0----------------------2---------------------|
G|-----0-----0-----0-----------2-----2-----2----------------|
D|--2-----2-----------2--3--4-----4-----------4--3----------|
A|--------------2-----------------------4-------------------|
E|----------------------------------------------------------|

e|-----0---0-------0-----------2---2-------2----2-----------|
B|-------------0----------------------2---------------------|
G|-----0-----0-----0-----------2-----2-----2-----2----------|
D|--2-----2-----------2--3--4-----4-----------4-------------|
A|--------------2-----------------------4-------------------|
E|----------------------------------------------------------|

e|-----0----0------0----0------0---|
B|------------3--------------------|
G|-----4-----4-----4-----4-----6---|
D|--5-----5-----5-----5-----7------|
A|---------------------------------|
E|---------------------------------|

BACK to PART A

When the drums kick in just play the chords, with are:
Bm	D	F#m	G


Enviada por Sem inscrição
Nº de acordes: 6