• Violão
  • Guitarra
  • Teclado
  • Cavaquinho
  • Contra-baixo
  • Bateria
  • Gaita
  • Guitar Pro
Tabbed by: Late_again
Email: beluska@interia.pl

Tuning: normal

Verse 1
e|----------------------------------------|
B|----------------------------------------|
G|------4---------4---------4--------4----|
D|----5---5-----5---5-----5---5----5---5--|
A|--3---------3---------5--------5--------|  x4
E|----------------------------------------|

Chorus
e|----------------------------------------|
B|----------------------------------------|
G|------4----5----------------------------|
D|------5----5----------------------------|
A|------5----3----------------------------|  x4
E|------3---------------------------------|

Verse 2
e|----------------------------------------|
B|----------------------------------------|
G|------4---------4---------4--------4----|
D|----5---5-----5---5-----5---5----5---5--|
A|--3---------3---------5--------5--------|  x2
E|----------------------------------------|

e|333333333333----3-3-3-3--5-5-5-5--------|
B|---------------3-3-3-3--3-3-3-3---------|
G|----------------------------------------|
D|----------------------------------------|
A|----------------------------------------|
E|----------------------------------------|

(or for version that isn't from cd play again verse 1 instead of verse 2)

Chorus
e|----------------------------------------|
B|----------------------------------------|
G|------4----5----------------------------|
D|------5----5----------------------------|
A|------5----3----------------------------|  x4
E|------3---------------------------------|

Bridge
e|----------------------------------------|
B|----------------------------------------|
G|----------4----4----5-------------------|
D|-----2----4----5----5-------------------|
A|-----2----2----5----3-------------------|  x2
E|---------------3------------------------|

e|----------------------------------------|
B|----------------------------------------|
G|------4---------4---------4--------4----|
D|----5---5-----5---5-----5---5----5---5--|
A|--3---------3---------5--------5--------|  x4
E|----------------------------------------|

Chorus
e|----------------------------------------|
B|----------------------------------------|
G|------4----5----------------------------|
D|------5----5----------------------------|
A|------5----3----------------------------|  x8
E|------3---------------------------------|

e|----------------------------------------|
B|----------------------------------------|
G|------4---------4---------4--------4----|
D|----5---5-----5---5-----5---5----5---5--|
A|--3---------3---------5--------5--------|  x2
E|----------------------------------------|

Ending
e|----------------------------------------|
B|----------------------------------------|
G|------4---------------------------------|
D|------5---------------------------------|
A|------5---------------------------------|  x4
E|------3---------------------------------|




Enviada por tinho
Nº de acordes: 1