The Maine

If I Only Had The Heart

The Maine

117 exibições
  • Violão
  • Guitarra
  • Teclado
  • Cavaquinho
  • Contra-baixo
  • Bateria
  • Gaita
  • Guitar Pro
Standard, Capotraste 4 (:

Intro
e|---0-------0-------0-------0---|
B|-----0-------0-------0-------0-|
G|-------------------------------|
D|-2-----2/4-----4/6-----6/1-----|
A|-------------------------------|
E|-------------------------------|

e|---0-------0-------0-------0---|
B|-----0-------0-------0-------0-|
G|-------------------------------|
D|-2-----2/4-----4/6-----6/1-----|
A|-------------------------------|
E|-------------------------------|

e|---0-------0-------0-------0---|
B|-----0-------0-------0-------0-|
G|-------------------------------|
D|-2-----2/4-----4/6-----6/1-----|
A|-------------------------------|
E|-------------------------------|

e|---0-------0-------0-----------|
B|-----0-------0-------0---------|
G|-------------------------------|
D|-2-----2/4-----4/6-----6/1-----|
A|-------------------------------|
E|-------------------------------|

Verse Pt. 1
e|------------------------------------|
B|------------------------------------|
G|--1-------2-------1-------4---------| x2
D|--2-------2-------2-------4---------|
A|--2-------0-------2-------2---------|
E|--0---------------0-----------------|

Verse Pt. 2
e|--------------------------------------------|
B|--------------------------------------------|
G|--1-1-1-1-----2-2-2-2----1-1-1-1----4-4-4-4-| x2
D|--2-2-2-2-----2-2-2-2----2-2-2-2----4-4-4-4-|
A|--2-2-2-2-----0-0-0-0----2-2-2-2----2-2-2-2-|
E|--0-0-0-0----------------0-0-0-0------------|
    . .         . .        . .        . .

Pre-Chorus
e|------------------------------------|
B|------------------------------------|
G|--6-6-6-6--4-4-4-4--2-2-2-2-2-2-2-2-|
D|--6-6-6-6--4-4-4-4--2-2-2-2-2-2-2-2-|
A|--4-4-4-4--2-2-2-2--0-0-0-0-0-0-0-0-|
E|------------------------------------|

e|-------------------------------|
B|-------------------------------|
G|--6-6-6-6--8-8-8-8--9-9-9-9-9/-|
D|--x-x-x-x--x-x-x-x--x-x-x-x-x/-| slide up
A|--4-4-4-4--6-6-6-6--7-7-7-7-7/-|
E|-------------------------------|

Chorus
e|-------------|
B|-------------|
G|--1--1-1--2~-|
D|--2--2-2--2~-|
A|--2--2-2--0~-|
E|--0--0-0-----|

e|------------------------------------|
B|------------------------------------|
G|--6-6-6-6--4-4-4-4--2-2-2-2-2-2-2-2-|
D|--6-6-6-6--4-4-4-4--2-2-2-2-2-2-2-2-|
A|--4-4-4-4--2-2-2-2--0-0-0-0-0-0-0-0-|
E|------------------------------------|

e|-------------|
B|-------------|
G|--1--1-1--2~-|
D|--2--2-2--2~-|
A|--2--2-2--0~-|
E|--0--0-0-----|

e|------------------------------------|
B|------------------------------------|
G|--6-6-6-6--8-8-8-8--9-9-9-9-9-9-9-9-|
D|--x-x-x-x--x-x-x-x--x-x-x-x-x-x-x-x-|
A|--4-4-4-4--6-6-6-6--7-7-7-7-7-7-7-7-|
E|------------------------------------|

Post Chorus
e|------------------------------------|
B|------------------------------------|
G|--1-------2-------1-------4---------| x2
D|--2-------2-------2-------4---------|
A|--2-------0-------2-------2---------|
E|--0---------------0-----------------|

This is basically the entire song, i know some parts are missing but it should give you 
good idea (:


Enviada por Sem inscrição
Nº de acordes: 0