The Doors

Five To One

The Doors

153 exibições
  • Violão
  • Guitarra
  • Teclado
  • Cavaquinho
  • Contra-baixo
  • Bateria
  • Gaita
  • Guitar Pro
Tuning: standard (E-A-D-G-B-e)

Main Bass/ Guitar riff that Robby plays.
e|--------------------------|
B|--------------------------|
G|--------------------------|
D|--------------------------|
A|--------------------------|
E|-3-5-5-5-5 3-5-5-5-5------|

Guitar part for verse:

e|----------------|------------------|
B|----------------|------------------|
G|--7b8-5-7-5-7---|-7b8-5-7b-5r6r5---|
D|------------7b8-|------------------|
A|----------------|------------------|
E|----------------|------------------|

Solo:

e|-20p17----------------------------------------------------|
B|------20p17---17--17--------------------------------------|
G|------------19--19--19b19b-17-19-17-19b19b-17-19-17 17/20-|
D|----------------------------------------------------------|
A|----------------------------------------------------------|
E|----------------------------------------------------------|

e|--------------------------------------|
B|----5---5-----------------------------|
G|-7b9-7b9-7b9r7p5------5-5-7-7b9-5h7-5-|
D|-----------------7-5-7----------------|
A|--------------------------------------|
E|--------------------------------------|

e|-------------------------------------------------------------------|
B|---17----20b22-----20-17-20b22r20-17-20b22r20-20-17----------------|
G|-19--19b20----17h19--------------------------------19b20r19p17--17-|
D|--------------------------------------------------------------19---|
A|-------------------------------------------------------------------|
E|-------------------------------------------------------------------|

e|-7b9-7----------------------------------|
B|------9-7-------------------------------|
G|---------7b8r7p5-5-7b9-7b9-7b9-5h7-5----|
D|----------------7---------------------7-|
A|----------------------------------------|
E|----------------------------------------|


Enviada por Sem inscrição
Nº de acordes: 0