Tame Impala

Jeremys Storm

Tame Impala

186 exibições
  • Violão
  • Guitarra
  • Teclado
  • Cavaquinho
  • Contra-baixo
  • Bateria
  • Gaita
  • Guitar Pro
E --5------------3-|--5-------------3-|--2-------------0-|
B ------3------3---|------3-------3---|------0-------0---|
G ----------3h5----|----------3h5-----|----------0h2-----|
Eb-----------------|------------------|------------------|
A -----------------|------------------|------------------|
Eb--4-4---4--------|--4-4---4---------|--4-4---4---------|


E --2------------0-|------------------|------------------|
B ------0------0---|--3---------------|--4---------------|
G ----------0h2----|--------3----0----|--------3----0----|
Eb-----------------|----------------0-|----------------0-|
A -----------------|--1--1----1---1---|------------------|
Eb--4-4---4--------|------------------|--0--0----0---0---|


E -----------------|----------------4-|
B -----------------|------------4-----|
G --8--------5-----|-------5----------|
Eb------7--------5-|--3---------------|
A -----------------|------------------|
Eb--5-5---5----5---|--5--5---5----5---|


Enviada por Sem inscrição
Nº de acordes: 0