Stone Sour

Through Glass

Stone Sour

504 exibições
Tuning: Eb (D# G# C# F# A# D#)

Intro: 
e|------------------------------------------------------------------------|
B|---------0------------0-------------------------------------------------|
G|-----------------------------------0------------------------0-----------|
D|------5-----------7-------------9-----9------------------9-----9--------|
A|---3-----------5--------------7----------7-------------7---------7------|
E|-----------------------------0----------------------0-------------------|


e|---------------------------|
B|----------0----------0-----|
G|---------------------------|
D|-------5----------7--------|
A|----3----------5-----------|
E|---------------------------|


e|-----|
B|-----|
G|-----|
D|-----|
A|-----|
E|--0--|

e|--0--|
B|--0--|
G|--0--|
D|--9--|
A|--7--|
E|--0--|


Verso:
e|----0000000-------0000000-------00000000000000/0000----|
B|----0000000-------0000000-------00000000000000/0000----|
G|----0000000-------0000000-------00000000000000/0000----|
D|----5555555-------7777777-------99999999999999/7777----|
A|----3333333-------5555555-------77777777777777/5555----|
E|-------------------------------------------------------|


e|----0000000-------0000000-------00000000000000-------|
B|----0000000-------0000000-------00000000000000-------|
G|----0000000-------0000000-------00000000000000-------|
D|----5555555-------7777777-------99999999999999-------|
A|----3333333-------5555555-------77777777777777-------|
E|-----------------------------------------------------|
(2x)

Refrão:
e|--333333---222222----000000000000----222-------------|
B|--333333---333333----000000000000----333-------------|
G|--000000---222222----000000000000----222-------------|
D|--222222---000000----222222222222----000-------------|
A|--333333---000000----222222222222----000-------------|
E|-----------------------------------------------------|


e|--333333---333333----0------|
B|--333333---333333----0------|
G|--000000---222222----0------|
D|--222222---000000----2------|
A|--333333---000000----2------|
E|----------------------------|

Verso:
e|----0000000-------0000000-------00000000000000-------|
B|----0000000-------0000000-------00000000000000-------|
G|----0000000-------0000000-------00000000000000-------|
D|----5555555-------7777777-------99999999999999-------|
A|----3333333-------5555555-------77777777777777-------|
E|-----------------------------------------------------|
(3x)

Refrão:
e|--333333---333333----000000000000----222-------------|
B|--333333---333333----000000000000----333-------------|
G|--000000---222222----000000000000----222-------------|
D|--222222---000000----222222222222----000-------------|
A|--333333---000000----222222222222----000-------------|
E|-----------------------------------------------------|
(4x)


e|----0000xxx-------0000xxx-------00000000000000-------|
B|----0000xxx-------0000xxx-------00000000000000-------|
G|----0000xxx-------0000xxx-------00000000000000-------|
D|----5555xxx-------7777xxx-------99999999999999-------|
A|----3333xxx-------5555xxx-------77777777777777-------|
E|-----------------------------------------------------|

e|----0000000-------0000000-------33333333333---333----|
B|----0000000-------0000000-------33333333333---333----|
G|----0000000-------0000000-------00000000000---222----|
D|----5555555-------7777777-------22222222222---000----|
A|----3333333-------5555555-------33333333333---000----|
E|-----------------------------------------------------|


e|--333333---333333----000000000000----222-------------|
B|--333333---333333----000000000000----333-------------|
G|--000000---222222----000000000000----222-------------|
D|--222222---000000----222222222222----000-------------|
A|--333333---000000----222222222222----000-------------|
E|-----------------------------------------------------|
(2x)

e|--3---3----|
B|--3---3----|
G|--0---2----|
D|--2---0----|
A|--3---0----|

E|---------------------------------------------------|
B|---------------------------------------------------|
G|--------------0------------------------0-----------|
D|-----------9-----9------------------9-----9--------|
A|---------7----------7-------------7---------7------|
E|--------0----------------------0-------------------|

e|----------------------------------|
B|---------0------------0-----------|
G|----------------------------------|
D|------5-----------7---------------|
A|---3-----------5------------------|
E|-----------------------------0----|

e|----0000000-------0000000-------00000000000000-------|
B|----0000000-------0000000-------00000000000000-------|
G|----0000000-------0000000-------00000000000000-------|
D|----5555555-------7777777-------99999999999999-------|
A|----3333333-------5555555-------77777777777777-------|
E|-----------------------------------------------------|
      .......       .......       ...........

e|----0000000-------0000000-------00000000000000-------|
B|----0000000-------0000000-------00000000000000-------|
G|----0000000-------0000000-------00000000000000-------|
D|----5555555-------7777777-------99999999999999-------|
A|----3333333-------5555555-------77777777777777-------|
E|-----------------------------------------------------|

e|--333333---333333----000000000000----222-------------|
B|--333333---333333----000000000000----333-------------|
G|--000000---222222----000000000000----222-------------|
D|--222222---000000----222222222222----000-------------|
A|--333333---000000----222222222222----000-------------|
E|-----------------------------------------------------|

Final:

e|--0--|
B|--0--|
G|--0--|
D|--2--|
A|--2--|
E|-----|


Enviada por Sem inscrição
Nº de acordes: 6