Stone Sour

Hesitate

Stone Sour

673 exibições
INTRO "You...were my fire..." through to "...til there was nothing left of me"
Acoustic Lead
D#|----------------|
A#|-0~~~~~~0~~0~~~~|
F#|-4~~~~~~6~~8~~~~|
C#|----------------|
G#|----------------|
D#|----------------| x3

D#|-----------0~~|
A#|-0-0-0-0--0~~~|
F#|--3-3-3-34~~~~|
C#|--------------|
G#|--------------|
D#|--------------|


VERSE 1 "I...I touched your face" through to "...see the rest of me"
Acoustic Lead
D#|----------------|
A#|-0~~~~~~0~~0~~~~|
F#|-4~~~~~~6~~8~~~~|
C#|----------------|
G#|----------------|
D#|----------------| x3

D#|-----------0~~|
A#|-0-0-0-0--0~~~|
F#|--3-3-3-34~~~~|
C#|--------------|
G#|--------------|
D#|--------------| <- repeat twice the second time around.

Repeat twice.

Acoustic Rhythm, lightly palm muted.
D#|---------------------------------|
A#|-12--12--12--12--11--11--11--11--|
F#|---11--11--11--11--11--11--11--11|
C#|---------------------------------|
G#|---------------------------------|
D#|---------------------------------| x3

D#|---------------------|
A#|-12--12--12--12--11~~|
F#|---11--11--11--11----|
C#|---------------------|
G#|---------------------|
D#|---------------------| <- repeat twice the second time around.

Repeat twice.

Just before the chorus, the electrics come in playing this;
D#|-----------------|
A#|-----------------|
F#|-8888888899999999|
C#|-8888888899999999|
G#|-6666666677777777|
D#|-----------------|


CHORUS "I see you, but I can't feel you..." through to "...you hesitate"
Electric Lead & Rhythm
D#|---------------------------------------------------------------|
A#|---------------------------------------------------------------|
F#|----------------------------------------------------------99~9~|
C#|-99999999999998~866666666666669~9222222222222222299999999999~9~|
G#|-99999999999998~866666666666669~9222222222222222299999999977~7~|
D#|-77777777777776~644444444444447~70000000000000000777777777-----| x2


VERSE 2 "Now...now and then" through to "...but I'll just keep the rest to me"
Verse 2 is almost exactly the same as verse 1, except you don't play the last bit twice
before the chorus.
Acoustic Lead
D#|----------------|
A#|-0~~~~~~0~~0~~~~|
F#|-4~~~~~~6~~8~~~~|
C#|----------------|
G#|----------------|
D#|----------------| x3

D#|-----------0~~|
A#|-0-0-0-0--0~~~|
F#|--3-3-3-34~~~~|
C#|--------------|
G#|--------------|
D#|--------------|

Repeat twice.

Acoustic Rhythm, lightly palm muted.
D#|---------------------------------|
A#|-12--12--12--12--11--11--11--11--|
F#|---11--11--11--11--11--11--11--11|
C#|---------------------------------|
G#|---------------------------------|
D#|---------------------------------| x3

D#|---------------------|
A#|-12--12--12--12--11~~|
F#|---11--11--11--11----|
C#|---------------------|
G#|---------------------|
D#|---------------------|

Repeat twice.

Just before the chorus, the electrics come in playing this;
D#|-----------------|
A#|-----------------|
F#|-8888888899999999|
C#|-8888888899999999|
G#|-6666666677777777|
D#|-----------------|


CHORUS "I see you, but I can't feel you..." through to "...you hesitate"
Electric Lead & Rhythm
D#|---------------------------------------------------------------|
A#|---------------------------------------------------------------|
F#|----------------------------------------------------------99~9~|
C#|-99999999999998~866666666666669~9222222222222222299999999999~9~|
G#|-99999999999998~866666666666669~9222222222222222299999999977~7~|
D#|-77777777777776~644444444444447~70000000000000000777777777-----| x2


SOLO
Electric Lead
D#|/12-11----------------------/12-11----------------|
A#|-------12--------------------------12-------------|
F#|----------11~~9-8-9-11-9-8~~----------11~~9-8-9-11|
C#|--------------------------------------------------|
G#|--------------------------------------------------|
D#|--------------------------------------------------|

-------------/12-11----------------------------------|
--------------------12-------------------------------|
-13-11~~9-8-9----------11~~9-8-9-11-9-8~~/8-6~~/4-3~~|
-----------------------------------------------------|
-----------------------------------------------------|
-----------------------------------------------------|
Electric Rhythm
D#|--------------------------------------------|
A#|--------------------------------------------|
F#|--------------------------------------------|
C#|-2~~4~~6~~2~~4~~6~~2~~4~~6~~4444444444444444|
G#|-2~~4~~6~~2~~4~~6~~2~~4~~6~~4444444444444444|
D#|-0~~2~~4~~0~~2~~4~~0~~2~~4~~2222222222222222|


BRIDGE "Oh we never made it..." through to "I don't believe"
Electric Lead & Rhythm
D#|-----------------------------------------------------------------|
A#|-----------------------------------------------------------------|
F#|-----------------------------------------------------------------|
C#|-2222444466666666222244446666666622224444666666664444444444444444|
G#|-2222444466666666222244446666666622224444666666664444444444444444|
D#|-0000222244444444000022224444444400002222444444442222222222222222|


CHORUS "I see you, but I can't feel you..." through to "...you hesitate"
Electric Lead & Rhythm
D#|---------------------------------------------------------------|
A#|---------------------------------------------------------------|
F#|----------------------------------------------------------99~9~|
C#|-99999999999998886666666666666999222222222222222299999999999~9~|
G#|-99999999999998886666666666666999222222222222222299999999977~7~|
D#|-777777777777766644444444444447770000000000000000777777777-----| x4


Enviada por Sem inscrição
Nº de acordes: 5