Rush

In The End

Rush

512 exibições
Intro (Capotraste 3rd Fret) 12-String Acoustic
-------------5-------3-------6----------------------------------------
-----5-------6-------4-------3----------------------------------------
-----5-------5-------3-------3----------------------------------------
-----5-------3-------5-------3--------------------3---------3---------
-----3---------------6-------5-----------------5---------3--------3---
-----------------------------6--------------6---------5--------3------
     C(A)    F(D)    Eb(C)   Bb(G)
     Repeat this Figure, variations in song include hammer-ons 
        from 3rd fret to 5th fret while playing chords.
 
     You can take me...                                       
-----5-----------------5-----|---5---------------5------3--|----------
-----5-----------------6-----|---5---------------6------3--|----5-----
-----5-----------------5-----|---5---------------5------4--|----5-----
-----7-----------------3-----|---7---------------3------5--|----5-----
-----7-----------------------|---7----------------------5--|----3----- 
-----5-----------------------|---5----------------------3--|----------
     Am                F         Am              F      G       C
 
Electric Guitar
---2-------3------1----------|---2-----3------------------------------
---3-------3------1-----5----|---3-----3------------------------------
---2-------0------2-----5----|---2-----0------------0-----0-----------
---0-------0------3-----5----|---0-----0----------2-----0-----0-------
-----------2------3-----3----|---------2--------3-----2-----0---------
-----------3------1----------|---------3------------------------------
   D       G      F     C        D     G
 
Leads:
----------------------------------------------------------------------
----------------------------------------------------------------------
--(14)--14-----(14)--14----12----11-H-12-P-11-H-14-P-11---------------
----F--rel.------F--rel.--------------------------------12------------
----------------------------------------------------------------------
----------------------------------------------------------------------
 
----------------------------------------------------------------------
----------------------------------------------------------------------
----------------------------------------------------------------------
--10-H-12-P-10-P-9----9-10-H-12-P-10-P-9-\-7--------------------------
-------------------12-------------------------10p9p7-9h10p9p7---------
--------------------------------------------------------------10p8h10-
 
----------------------------------------------------------------------
----------------------------------------------------------------------
------------------------------------------10----12--10----------------
------------------------sl.--10----12--10----12--------12--11--12-----
----------8----8--10--10/12-----12------------------------------------
---8-H-10---10--------------------------------------------------------
 
-------------------------------------------------10--(12)--(12)--(12)-
------------------------------------10---10-H-12-------F-----F-----F--
--------7--(9)--9---7-----7-----11------------------------------------
---7--9-----F--rel.----9----------------------------------------------
----------------------------------------------------------------------
----------------------------------------------------------------------
 
                                        doubled by ?kazoo?
---12-----10-------------------------|--------------------------------
---rel.-------12-P-10----------------|--------------------------------
-----------------------11-P-9-\-7----|--14---14---14--12--14--12--14--
-------------------------------------|--------------------------------
-------------------------------------|--------------------------------
-------------------------------------|--------------------------------
 
-------------------------------------|--------------------------------
-------------------------------------|--------------------------------
---(14)--14--(14)--14--(14)~~~~~~~---|--(14)---(14)---(14)---(14)-----
-----F---------F---------F-----------|--[1.5]--[1.5]--[1.5]--[1.5]----
-------------------------------------|--------------------------------
-------------------------------------|--------------------------------
 
----------------------------------------------------------------------
----------------------------------------------------------------------
---14---12--11-H-12-P-11-H-12-H-14-P-11-------------------------------
---rel.---------------------------------12~~~~~-----------------------
----------------------------------------------------------------------
----------------------------------------------------------------------
 
----------------------------------------------------------------------
-------------------------------------------------15--15--15--15-------
---12-P-11----12-P-11-----12-P-11----12-P-11--------------------------
-----------12---------12----------12---------12-----------------------
----------------------------------------------------------------------
----------------------------------------------------------------------
 
----------------------------------------------------------------------
----------------------------------------------------------------------
---12-P-11----12-P-11-----12-P-11----12-P-11--------------------------
-----------12---------12----------12---------12--12--12--12--12-------
----------------------------------------------------------------------
----------------------------------------------------------------------
 
----------------------------------------------------------------------
-------------------------------------------------15--15--15--15-------
---12-P-11----12-P-11-----12-P-11----12-P-11--------------------------
-----------12---------12----------12---------12-----------------------
----------------------------------------------------------------------
----------------------------------------------------------------------
 
You can take me.....
---2----------3------------2-------3----------------------------------
---3----------3------------3-------3-------2--------------------------
---4----------0------------4-------0-------2--------------------------
---4----------0------------4-------0-------2--------------------------
---2----------2------------2-------2-------0--------------------------
--------------3--------------------3----------------------------------
   Bm         G            Bm      G       A   Repeat initial electric 
                                               guitar chord progression


Enviada por Sem inscrição
Nº de acordes: 9