Pink

U Plus Ur Hand

Pink

39 exibições
  • Violão
  • Guitarra
  • Teclado
  • Cavaquinho
  • Contra-baixo
  • Bateria
  • Gaita
  • Guitar Pro
Intro/Verse 1

E-----|---------------|-----------------|-------------------------------|
B-----|---------------|-----------------|-------------------------------|
G-----|---------------|-----------------|-------------------------------|
D--9--|-12-7-9-9--(x5)|-9/10--10-7-9-9--|--12-7-9-9--(x3)-9/10-10-7-9-9-|
A--7--|-10-5-7-7------|-7/8---8--5-7-7--|--10-5-7-7-------7/8--8--5-7-7-|
D-----|---------------|-----------------|-------------------------------|

Chorus (for strumming patern listen to song, easy to hear)

E-----------------------------------------------------------------------|
B-----------------------------------------------------------------------|
G----5-----7------5-----7--------5---------5-----7----------------------|
D-2--5--5--7---2--5--5--7--7--2--5--5---2--5--5--7----------------------|
A-2--3--5--5---2--3--5--5--7--2--3--5---2--3--5--5----------------------|
D-2-----5------2-----5-----7--2-----5---2-----5-------------------------|


Verse 2

E-----|---------------|-----------------|-------------------------------|
B-----|---------------|-----------------|-------------------------------|
G-----|---------------|-----------------|-------------------------------|
D--9--|-12-7-9-9--(x5)|-9/10--10-7-9-9--|--12-7-9-9--(x3)-9/10-10-7-9-9-|
A--7--|-10-5-7-7------|-7/8---8--5-7-7--|--10-5-7-7-------7/8--8--5-7-7-|
D-----|---------------|-----------------|-------------------------------|


Chorus

E-----------------------------------------------------------------------|
B-----------------------------------------------------------------------|
G----5-----7------5-----7--------5---------5-----7----------------------|
D-2--5--5--7---2--5--5--7--7--2--5--5---2--5--5--7----------------------|
A-2--3--5--5---2--3--5--5--7--2--3--5---2--3--5--5----------------------|
D-2-----5------2-----5-----7--2-----5---2-----5-------------------------|


Bridge

E----|------------------------------------------------------------------|
B----|------------------------------------------------------------------|
G----|------------------------------------------------------------------|
D--9-|--12-7-9-9--(x4)--------------------------------------------------|
A--7-|--10-5-7-7--------------------------------------------------------|
D----|------------------------------------------------------------------|


Outro

E-----------------------------------------------------------------------|
B-----------------------------------------------------------------------|
G----5-----7------5-----7--------5---------5-----7---(x2)---------------|
D-2--5--5--7---2--5--5--7--7--2--5--5---2--5--5--7----------------------|
A-2--3--5--5---2--3--5--5--7--2--3--5---2--3--5--5----------------------|
D-2-----5------2-----5-----7--2-----5---2-----5-------------------------|


Enviada por Sem inscrição
Nº de acordes: 0