Tuning: Drop D (DADGBe)
Tabbed By: Richard O'Brien

Intro: 

e|-------------------------------------------------------------------------------|
B|-------------------------------------------------------------------------------|
G|-------------------------------------------------------------------------------|
D|6-8--6-8--6-8--6-8----6-8--6-8--6-8--8-6----6-8--6-8--6-8--6-8----6-8--6-8--6-8|
A|6-8--6-8--6-8--6-8----6-8--6-8--6-8--6-4----6-8--6-8--6-8--6-8----6-8--6-8--6-8|
D|6-8--6-8--6-8--6-8----6-8--6-8--6-8---------6-8--6-8--6-8--6-8----6-8--6-8--6-8|

Verse:

PM:---------------------|
e|----------------------|
B|----------------------|
G|--------8-10----------|x7
D|8-10-11--------8-6-7~-|
A|----------------------|
D|----------------------|

PM:---------------------|
e|----------------------|
B|----------------------|
G|--------8-10----------|
D|8-10-11--------8------|
A|----------------------|
D|----------------------|

e|-------------------------------------------|
B|-------------------------------------------|
G|--------8-10--------------------8-10-------|
D|8-10-11--------8-6-7~---8-10-11--------8-6-|
A|-------------------------------------------|
D|-------------------------------------------|

e|----------------------|
B|----------------------|
G|--------8-10----------|x2
D|8-10-11--------8-6-7~-|
A|----------------------|
D|----------------------|

Pre-Chorus:

e|---------------------|
B|---------------------|
G|---------------------|
D|10h11p10h11p10h11p10-|
A|---------------------|
D|---------------------|

PM:-----------------------------------------------|
e|------------------------------------------------|
B|-------------------------------------------9-11~|
G|--------8-10---------------------8-10-8-10------|
D|8-10-11--------8-6-7~----8-10-11----------------|
A|------------------------------------------------|
D|------------------------------------------------|

e|--------------------------|
B|--------------------------|
G|--------------------------|
D|8--6--5--4--7--8--6--5--4-|
A|8--6--6--4--8--8--6--6--4-|
D|8--6--5--4--7--8--6--5--4-|

Chorus 2:

e|-------------------------------------------------------------------------------|
B|-------------------------------------------------------------------------------|
G|-------------------------------------------------------------------------------|
D|6-8--6-8--6-8--6-8----6-8--6-8--6-8--8-6----6-8--6-8--6-8--6-8----6-8--6-8--6-8|
A|6-8--6-8--6-8--6-8----6-8--6-8--6-8--6-4----6-8--6-8--6-8--6-8----6-8--6-8--6-8|
D|6-8--6-8--6-8--6-8----6-8--6-8--6-8---------6-8--6-8--6-8--6-8----6-8--6-8--6-8|

Verse 2:

PM:---------------------|
e|----------------------|
B|----------------------|
G|--------8-10----------|x4
D|8-10-11--------8-6-7~-|
A|----------------------|
D|----------------------|

PM:---------------------|
e|----------------------|
B|----------------------|
G|--------8-10----------|
D|8-10-11--------8------|
A|----------------------|
D|----------------------|

e|-------------------------------------------|
B|-------------------------------------------|
G|--------8-10--------------------8-10-------|
D|8-10-11--------8-6-7~---8-10-11--------8-6-|
A|-------------------------------------------|
D|-------------------------------------------|

e|----------------------|
B|----------------------|
G|--------8-10----------|x2
D|8-10-11--------8-6-7~-|
A|----------------------|
D|----------------------|

Pre-Chorus 2:

e|---------------------|
B|---------------------|
G|---------------------|
D|10h11p10h11p10h11p10-|
A|---------------------|
D|---------------------|

PM:-----------------------------------------------|
e|------------------------------------------------|
B|-------------------------------------------9-11~|
G|--------8-10---------------------8-10-8-10------|
D|8-10-11--------8-6-7~----8-10-11----------------|
A|------------------------------------------------|
D|------------------------------------------------|

e|--------------------------|
B|--------------------------|
G|--------------------------|
D|8--6--5--4--7--8--6--5--4-|
A|8--6--6--4--8--8--6--6--4-|
D|8--6--5--4--7--8--6--5--4-|

Bridge:
(Play this the second time Brendan sings "Tonight We are Victorious..."
e|---------------------------------------------|
B|--------9-11---------------------9-11--------|
G|---------------------------------------------|
D|8-10-11-------11-10------8-10-11-------11-10-|
A|--------------------8------------------------|
D|---------------------------------------------|

e|----------------------|
B|--------9-11----------|
G|----------------------|x2
D|8-10-11-------11-10---|
A|--------------------8-|
D|----------------------|

Pre-Chorus 3:

e|--------------------------|
B|--------------------------|
G|--------------------------|
D|8--6--5--4--7--8--6--5--4-|
A|8--6--6--4--8--8--6--6--4-|
D|8--6--5--4--7--8--6--5--4-|

e|--------------------------------------------------------------------------------xxxx----|
B|--------------------------------------------------------------------------------xxxx----|
G|--------------------------------------------------------------------------------xxxx----|
D|6-8--6-8--6-8--6-8----6-8--6-8--6-8--8-6----6-8--6-8--6-8--6-8----6-8--6-8--6-8-xxxx-6-7|
A|6-8--6-8--6-8--6-8----6-8--6-8--6-8--6-4----6-8--6-8--6-8--6-8----6-8--6-8--6-8-xxxx-6-7|
D|6-8--6-8--6-8--6-8----6-8--6-8--6-8---------6-8--6-8--6-8--6-8----6-8--6-8--6-8-xxxx-6-7|

e|-------------------------------------------------------------------------------|
B|-------------------------------------------------------------------------------|
G|-------------------------------------------------------------------------------|
D|6-8--6-8--6-8--6-8----6-8--6-8--6-8--8-6----6-8--6-8--6-8--6-8----6-8--6-8--6-8|
A|6-8--6-8--6-8--6-8----6-8--6-8--6-8--6-4----6-8--6-8--6-8--6-8----6-8--6-8--6-8|
D|6-8--6-8--6-8--6-8----6-8--6-8--6-8---------6-8--6-8--6-8--6-8----6-8--6-8--6-8|


| /  slide up
| \  slide down
| h  hammer-on
| p  pull-off
| ~  vibrato
| +  harmonic
| x  Mute note


Enviada por Sem inscrição
Nº de acordes: 0