Nx Zero

Só Rezo

Nx Zero

1.518 exibições
Tom: Cm

Intro: 
   
Base: G#5 A#5 C5 D#5

e|-11-11-------11-11-------11-11-------------------------
B|-------10-12-------10-12-------10-12-12-12-12-12-------
G|-------------------------------------------------------
D|-------------------------------------------------------

                               C5
Quando não tenho mais pra onde ir
D#5                          G#5     A#5
e no meu céu não tem mais estrelas
                    C5
aonde foi parar a coragem
D#5                       G#5     A#5
eu to cansado mais não desisto


Pré-Refrão:

          C5                A#5
mas posso ver uma luz lá no fim..
           G#5                  A#5
será que alguém ainda olha por mim?

       G#5                  A#5
não me julgue por não ser igual
             F5                
carrego a verdade no olhar no olhar


Refrão:

G#5               A#5                 C5           D#5
eu só rezo pra ficar bem eu sei que vai acredito que vai
           G#5                A#5                 C5           D#5
ficar tudo bem só rezo pra ficar bem eu sei que vai acredito que vai
                       F5
F5icar tudo bem bem bem bem...

Solo:
e|--------------------------------- 
B|--------------------------------- 
G|--------------------------------- 
D|------------------------6/8-6---- 
A|-8-10--8-6-8------8-10--------6-- 
E|-------------6-8----------------- 

                          C5
Só Deus sabe o quanto eu corri
D#5                      G#5  A#5
e o que fiz pra chegar aqui
                      C5
esse mundo não é mais meu
D#5                    G#5    A#5
não me rendo nem me entrego

(Pré-Refrão)

(Refrão)

G#5                    A#5                           C5
Só quero ser o que eu sou, só quero não ter que mentir
                    D#5
pois ainda não encontrei o que procuro
G#5                    A#5                           C5
Só quero ser o que eu sou, só quero não ter que mentir
                    D#5
pois ainda não encontrei, ainda não encontrei...

Base Solo: (C5 D#5) 4x

Solo:
e|----------------------------------------------------------------------- 
B|-----------------------------------------------------------------------
G|-----------------------------8-----------------------------10----------
D|-8p10-10-10-10-8p10-10-10-10---8p10-10-10-10-8p10-10-10-10-------------
A|-----------------------------------------------------------------------
E|----------------------------------------------------------------------- 

e|----------------------------------------------------------------------- 
B|-----------------------------8----------------11-11-11-11-11-11~------- 
G|-----------------------------------------------------------------------
D|-8p10-10-10-10-8p10-10-10-10---8p10-10-10-10---------------------------
A|-----------------------------------------------------------------------
E|----------------------------------------------------------------------- 

G#5               A#5
eu só rezo pra ficar bem
           C5     
rezo pra ficar bem
           D#5
rezo pra ficar bem
pra ficar bem

Final: (G# A# Cm) 2x


Enviada por Sem inscrição
Nº de acordes: 8