Nightwish

Wish I Had An Angel

Nightwish

55 exibições
  • Violão
  • Guitarra
  • Teclado
  • Cavaquinho
  • Contra-baixo
  • Bateria
  • Gaita
  • Guitar Pro
INTRO (00:10)
|--------------------------------------------------------------------------|
|--------------------------------------------------------------------------|
|--------------------------------------------------------------------------|
|-2-3-2-00h22-0h22-2-3-2-00h22------2-3-2-00h22-0h22-0h2255330-h2266553----|
|-2-3-2-00h22-0h22-2-3-2-00h22------2-3-2-00h22-0h22-0h2233330-h2266553----| 
|-0-1-0------------0-1-0-------0310-0-1-0---------------03311----044331----|
        ++ ++ + ++       ++ ++ ++++       ++ ++ + ++ + +++++++  +++++++   
   
VERSE 1 (x2) (00:32)
|--------------------------------------------------------------------------|
|--------------------------------------------------------------------------|
|--------------------7--5---------------------------5----------------------|
|---2-------------5--7--5----4-0h2-0h2-0h2-0h2------5---4--5--5-5----------|
|---2-------------5--5--3----4-0h2-0h2-0h2-0h2------3---4--5--5-5----------| 
|-\-000...0310...-3----------2-----------------0310-----2--3--3-3----------| 
          ++++                                 ++++
"I wish i had an angel..."                                       1st time 
|-------------------------------------------------------------||-----------|
|-------------------------------------------------------------||-----------|
|------------5---------7-----------------------------5555-7777||-----------|
|-2-----2-22-5------5--7--2--------------------------5555-7777||2-3-2-00h22|
|-2-----2-22-333...-5--5--2--------------------------3333-5555||2-3-2-00h22| 
|-000...0000--------3-----000...-222...-333...-555...---------||0-1-0------| 

 Vesre 1 second time (01:22)                                     2nd time
|------------------------------------------------------------||------------|
|------------------------------------------------------------||------------|
|------------------------------------------------------------||------------|
|------------------------------------------------------------||--3200-0-0h2|
|------------------------------------------------------------||--3200-0-0h2| 
|------------------------------------------------------------||0010--------| 

 (02:09)
|--------------------------------------------------------------------------|
|--------------------------------------------------------------------------|
|--------------------------------------------55-------------------------5--|
|-222-333-30--5430-0-0-000-0-0230-0-0-0-0-0-0550-0-0-000-0-0230-0-0-00335--|
|-222-333-30--5430-0-0-000-0-0230-0-0-0-0-0-0330-0-0-000-0-0230-0-0-00333--| 
|-000-111-1---321-------------01----------------------------01--------11---| 

VERSE 2 (02:25) The Furious Part "Greatest thrill..."
|--------------------------------------------------------------------------|
|--------------------------------------------------------------------------|
|-----------------------------------------------3--------------------------|
|-2-2---22-2-2-2-202-2----35--350--2-2---22-2-2-3-2-2---3-5-----60---------|
|-2-222222-2-2-2-202-2-22235--350--2-222222-2-2-1-2-22223-5-----60---------| 
|-0-000000-0-0-0-0-0-0-00013-013---0-000000-0-0---0-00001-3-01034----------| 
     +++               +++            +++            +++    ++++ 

|--------------------------------------------------------------------------|
|--------------------------------------------------------------------------|
|---------------------------33------------------------------5-3-----3------|
|-0-0-000-0-0230-0-0-0-0-0-033-0---0--0-0--0--0-----------3-5-3-320-3-323-2|
|-0-0-000-0-0230-0-0-0-0-0-011-0---0--0-0--0--0-----------3-3-1-320-1-323-2| 
|------------01------------------00--0----0-----0-0-0-0-0-1-----10----101-0| 
                                                                +++   +++        
          Here enter Gutar II  (02:44)
|----------------------------||-------------------------------||----------|
|----------------------------||-------------------------------||----------|
|----------------------------||-------------------------------||----------|
|----------------------------||-------------------------------||----------|
|----------------------------||----12*~10*~---12*~----12*~10*~||----------|
|----------------------------||-10*~------10*~----10*~--------||----------| 

 "I wish I had an angel..."(03:15)
|--------------------------------------------------------------------------|
|--------------------------------------------------------------------------|
|------------5---------7------------------------------5555-7777------------|
|-2-----2-22-5------5--7--2---------------------------5555-7777------------|
|-2-----2-22-333...-5--5--2---------------------------3333-5555------------| 
|-000...0000--------3-----000...-222...-333...-555...----------------------|


|--------------------------------------------------------------------------|
|--------------------------------------------------------------------------|
|--------------------------------------------------------------------------|
|-2-3-2-00h22-0h22-2-3-2-00h22------2-3-2-00h22-0h22-0h2255330-h2266553----|
|-2-3-2-00h22-0h22-2-3-2-00h22------2-3-2-00h22-0h22-0h2233330-h2266553----| 
|-0-1-0------------0-1-0-------0310-0-1-0---------------03311----044331----|
        ++ ++ + ++       ++ ++ ++++       ++ ++ + ++ + +++++++  +++++++      
OUTRO (03:48)

in this parts i can hear some a.h but i don't know
        ______________________       ______________________
       |                      |     |                      |
|------------------------------------------------------------|
|------------------------------------------------------------|
|------------------------------------------------------------|
|-2-3-2-0*~0*~2*~2*~-0*~2*~2*~-2-3-2-0*~0*~2*~2*~-0*~2*~2*~--|
|-2-3-2-0*~0*~2*~2*~-0*~2*~2*~-2-3-2-0*~0*~2*~2*~-0*~2*~2*~--| 
|-0-1-0------------------------0-1-0-------------------------| 
                                                  
|----------------------------------|
|----------------------------------|
|----------------------------------|
|-2-3-2-00h22-0h22-2-3-2-00h22-022-|
|-2-3-2-00h22-0h22-2-3-2-00h22-022-| 
|-0-1-0------------0-1-0-----------| 


Enviada por Sem inscrição
Nº de acordes: 0