Nightwish

Storytime

Nightwish

75 exibições
  • Violão
  • Guitarra
  • Teclado
  • Cavaquinho
  • Contra-baixo
  • Bateria
  • Gaita
  • Guitar Pro
Intro: 

E|---------------------------------------------|
B|---------------------------------------------|
G|------------------------------3-3------------|
D|-5-5---------5-5--------------3-3-3-3--------|
A|-5-5---------5-5--------------1-1-3-3--------|
E|-3-3---------3-3------------------1-1--------|



E|---------------------------------------------|
B|---------------------------------------------|
G|---------------------------------------------|
D|-5---5--6--5---5---5--6--5---5--3-3-3-3-3----|
A|-5---5--6--5---5---5--6--5---5--3-3-3-3-3----|
E|-3---3--4--3---3---3--4--3---3--1-1-1-1-1----|



E|---------------------------------------------|
B|---------------------------------------------|
G|---------------------------------------------|
D|-5---5--6--5---5---5--6--5---6--4------------|
A|-5---5--6--5---5---5--6--5---6--4------------|
E|-3---3--4--3---3---3--4--3---4--2------------|



E|---------------------------------------------|
B|---------------------------------------------|
G|---------------------------------------------|
D|-5---5--6--5---5---5--6--5---5--3-3-3-3-3----|
A|-5---5--6--5---5---5--6--5---5--3-3-3-3-3----|
E|-3---3--4--3---3---3--4--3---3--1-1-1-1-1----|



E|------------------------------------------------|
B|------------------------------------------------|
G|------------------------------------------------|
D|-5---5--6--5---5---5--6--5---6-6--4-4-----------|
A|-5---5--6--5---5---5--6--5---6-6--4-4-----------|
E|-3---3--4--3---3---3--4--3---4-4--2-4-----------|


Verso:

E|-----------------|
B|-----------------|
G|--3-3------------|
D|--3-3-3-3--------|
A|--1-1-3-3--------|
E|------1-1--------|



E|---------------------------------------------|
B|---------------------------------------------|
G|---------------------------------------------|
D|-5---5--6--5---5---5--6--5---5--3-3-3-3-3----|
A|-5---5--6--5---5---5--6--5---5--3-3-3-3-3----|
E|-3---3--4--3---3---3--4--3---3--1-1-1-1-1----|



E|---------------------------------------------|
B|---------------------------------------------|
G|---------------------------------------------|
D|-5---5--6--5---5---5--6--5---6--4------------|
A|-5---5--6--5---5---5--6--5---6--4------------|
E|-3---3--4--3---3---3--4--3---4--2------------|



E|---------------------------------------------|
B|---------------------------------------------|
G|---------------------------------------------|
D|-5---5--6--5---5---5--6--5---5--3-3-3-3-3----|
A|-5---5--6--5---5---5--6--5---5--3-3-3-3-3----|
E|-3---3--4--3---3---3--4--3---3--1-1-1-1-1----|



E|---------------------------------------------|
B|---------------------------------------------|
G|--------------------3-3-3-3-3-3-3-3----------|
D|-5---5--6--5---5----3-3-3-3-3-3-3-3----------|
A|-5---5--6--5---5----1-1-1-1-1-1-1-1----------|
E|-3---3--4--3---3-----------------------------|


Refrão: 
E|---------------------------------------------|
B|---------------------------------------------|
G|--------3-------------5----------------------|
D|-5------3-x16--3------5-x16------------------| 
A|-5-x16--1------3-x16--3----------------------|
E|-3-------------1-----------------------------|

E|------|
B|------|
G|------|
D|-5-5--|
A|-5-5--|
E|-3-3--|


E|--------------------------------------------|
B|--------------------------------------------|
G|--------------------------------------------|
D|----5--6--5---5---5--6--5---5--3-3-3-3-3----|
A|----5--6--5---5---5--6--5---5--3-3-3-3-3----|
E|----3--4--3---3---3--4--3---3--1-1-1-1-1----|



E|---------------------------------------------|
B|---------------------------------------------|
G|---------------------------------------------|
D|-5---5--6--5---5---5--6--5---6--4------------|
A|-5---5--6--5---5---5--6--5---6--4------------|
E|-3---3--4--3---3---3--4--3---4--2------------|



E|---------------------------------------------|
B|---------------------------------------------|
G|---------------------------------------------|
D|-5---5--6--5---5---5--6--5---5--3-3-3-3-3----|
A|-5---5--6--5---5---5--6--5---5--3-3-3-3-3----|
E|-3---3--4--3---3---3--4--3---3--1-1-1-1-1----|



E|-------------------------------------|
B|-------------------------------------|
G|-------------------------------------|
D|-5---5--6--5------6-6--4-4-----------|
A|-5---5--6--5------6-6--4-4-----------|
E|-3---3--4--3------4-4--2-4-----------|


Verso:

E|---------------------------------------------|
B|---------------------------------------------|
G|---------------------------------------------|
D|-5---5--6--5---5---5--6--5---5--3-3-3-3-3----|
A|-5---5--6--5---5---5--6--5---5--3-3-3-3-3----|
E|-3---3--4--3---3---3--4--3---3--1-1-1-1-1----|



E|---------------------------------------------|
B|---------------------------------------------|
G|---------------------------------------------|
D|-5---5--6--5---5---5--6--5---6--4------------|
A|-5---5--6--5---5---5--6--5---6--4------------|
E|-3---3--4--3---3---3--4--3---4--2------------|



E|---------------------------------------------|
B|---------------------------------------------|
G|---------------------------------------------|
D|-5---5--6--5---5---5--6--5---5--3-3-3-3-3----|
A|-5---5--6--5---5---5--6--5---5--3-3-3-3-3----|
E|-3---3--4--3---3---3--4--3---3--1-1-1-1-1----|



E|--------------------------------------|
B|--------------------------------------|
G|--------------------3-3-3-3-----------|
D|-5---5--6--5---5----3-3-3-3-3-3-3-3---|
A|-5---5--6--5---5----1-1-1-1-3-3-3-3---|
E|-3---3--4--3---3------------1-1-1-1---|



E|---------------------------------------------|
B|---------------------------------------------|
G|---------------------------------------------|
D|-5---5--6--5---5---5--6--5---5--3-3-3-3-3----|
A|-5---5--6--5---5---5--6--5---5--3-3-3-3-3----|
E|-3---3--4--3---3---3--4--3---3--1-1-1-1-1----|



E|---------------------------------------------|
B|---------------------------------------------|
G|---------------------------------------------|
D|-5---5--6--5---5---5--6--5---6--4------------|
A|-5---5--6--5---5---5--6--5---6--4------------|
E|-3---3--4--3---3---3--4--3---4--2------------|



E|---------------------------------------------|
B|---------------------------------------------|
G|---------------------------------------------|
D|-5---5--6--5---5---5--6--5---5--3-3-3-3-3----|
A|-5---5--6--5---5---5--6--5---5--3-3-3-3-3----|
E|-3---3--4--3---3---3--4--3---3--1-1-1-1-1----|



E|---------------------------------------------|
B|---------------------------------------------|
G|--------------------3-3-3-3-3-3-3-3----------|
D|-5---5--6--5---5----3-3-3-3-3-3-3-3----------|
A|-5---5--6--5---5----1-1-1-1-1-1-1-1----------|
E|-3---3--4--3---3-----------------------------|


Refrão:
E|---------------------------------------------|
B|---------------------------------------------|
G|--------3-------------5----------------------|
D|-5------3-x16--3------5-x16------------------| 
A|-5-x16--1------3-x16--3----------------------|
E|-3-------------1-----------------------------|

E|------|
B|------|
G|------|
D|-5\0--|
A|-5\0--|
E|-3\0--|

Ponte: 

E|------------------------------------------------|
B|------------------------------------------------|
G|--5---------------------------------------------|
D|--5-5-5---5\4/5----7-7-7----5\4/5-5\4/5---------|
A|--3-5-5---5\4/5----7-7-7----5\4/5-5\4/5---------|
E|----3-3---3\2/3----5-5-5----3\2/3-3\2/3---------|

                                                     

E|-----------------------------------------------|
B|-----------------------------------------------|
G|--5--------------------------------------------|
D|--5-5-5---5\4/5-7-7-7----5\4/5----5\4/5--------|
A|--3-5-5---5\4/5-7-7-7----5\4/5----5\4/5--------|
E|----3-3---3\2/3-5-5-5----3\2/3----3\2/3--------|



E|-------------------------------------------------------------------------|
B|-------------------------------------------------------------------------|
G|-5-5-5-5-5-5-5-5-7-7-7-7-7-7-7-7-8-8-8-8-8-8-8-8-10-10-10-10-10-10-10-10-|
D|-------------------------------------------------------------------------|
A|-------------------------------------------------------------------------|
E|-------------------------------------------------------------------------|


E|------|
B|-12p*-|
G|------|
D|------|
A|------|
E|------|

Refrão:
E|--------------------------------------|---------|
B|--------------------------------------|---------|
G|--------3-------------5---------------|---------|
D|-5------3-x16--3------5-x16-----------|---5-5---|
A|-5-x16--1------3-x16--3---------------|---5-5---|
E|-3-------------1----------------------|---3-3---|


Enviada por Sem inscrição
Nº de acordes: 0