• Violão
  • Guitarra
  • Teclado
  • Cavaquinho
  • Contra-baixo
  • Bateria
  • Gaita
  • Guitar Pro
intro

  D5               F5     C5           
|---------------------------------|---------------------------------|
|---------------------------------|---------------------------------|
|-7-7-7-7-7-7-7-7-7-7-7-7-7-7-7-7-|-----------------5-5-5-5-5-5-5-5-|
|-7-7-7-7-7-7-7-7-7-7-7-7-7-7-7-7-|-3-3-3-3-3-3-3-3-5-5-5-5-5-5-5-5-|
|-5-5-5-5-5-5-5-5-5-5-5-5-5-5-5-5-|-3-3-3-3-3-3-3-3-3-3-3-3-3-3-3-3-|
|---------------------------------|-1-1-1-1-1-1-1-1-----------------|



verse

  D5 D5 D5           D5
  this is me for forever one of the lost ones


      D5   E5       G5     C5
  the one without a name without an honest heart as compass


  D5     D5 D5           D5
  this is me for forever one without a  name


       G5        D5 G5      C5
  this life's the last endeavour to find the missing lifeline



chorus

  D5               F5     C5           
|---------------------------------|---------------------------------|
|---------------------------------|---------------------------------|
|-7-7-7-7-7-7-7-7-7-7-7-7-7-7-7-7-|-----------------5-5-5-5-5-5-5-5-|
|-7-7-7-7-7-7-7-7-7-7-7-7-7-7-7-7-|-3-3-3-3-3-3-3-3-5-5-5-5-5-5-5-5-|
|-5-5-5-5-5-5-5-5-5-5-5-5-5-5-5-5-|-3-3-3-3-3-3-3-3-3-3-3-3-3-3-3-3-|
|---------------------------------|-1-1-1-1-1-1-1-1-----------------|

      oh  how  I  wish for soothing rain oh how I   wish to dream a- gain


  D5               F5     C5           
|---------------------------------|---------------------------------|
|---------------------------------|---------------------------------|
|-7-7-7-7-7-7-7-7-7-7-7-7-7-7-7-7-|-----------------5-5-5-5-5-5-5-5-|
|-7-7-7-7-7-7-7-7-7-7-7-7-7-7-7-7-|-3-3-3-3-3-3-3-3-5-5-5-5-5-5-5-5-|
|-5-5-5-5-5-5-5-5-5-5-5-5-5-5-5-5-|-3-3-3-3-3-3-3-3-3-3-3-3-3-3-3-3-|
|---------------------------------|-1-1-1-1-1-1-1-1-----------------|

      my loving   heart lost in the dark for hope i'd give my every-  thing



verse

  D5           D5                   D5           D5

     my flower withered between the pages two and   three


  D5              E5       G5            C5

|---------------------------------|---------------------------------|
|---------------------------------|---------------------------------|
|-7-7-7-7-7-7-7-7-----------------|-----------------5-5-5-5-5-5-5-5-|
|-7-7-7-7-7-7-7-7-2-2-2-2-2-2-2-2-|-5-5-5-5-5-5-5-5-5-5-5-5-5-5-5-5-|
|-5-5-5-5-5-5-5-5-2-2-2-2-2-2-2-2-|-5-5-5-5-5-5-5-5-3-3-3-3-3-3-3-3-|
|-----------------0-0-0-0-0-0-0-0-|-3-3-3-3-3-3-3-3-----------------|

  once   and   forever   bloom      gone   with my sins


  F5     F5
|---------------------------------|---------------------------------|
|---------------------------------|---------------------------------|
|---------------------------------|---------------------------------|
|-3-3-3-3-3-3-3-3-3-3-3-3-3-3-3-3-|-3-3-3-3-3-3-3-3-3-3-3-3-3-3-3-3-|
|-3-3-3-3-3-3-3-3-3-3-3-3-3-3-3-3-|-3-3-3-3-3-3-3-3-3-3-3-3-3-3-3-3-|
|-1-1-1-1-1-1-1-1-1-1-1-1-1-1-1-1-|-1-1-1-1-1-1-1-1-1-1-1-1-1-1-1-1-|

  walk the dark path sleep with angels call the past for help


  Bb5        F5       Bb5     Eb5
|---------------------------------|---------------------------------|
|---------------------------------|---------------------------------|
|-3-3-3-3-3-3-3-3-----------------|-3-3-3-3-3-3-3-3-8-8-8-8-8-8-8-8-|
|-3-3-3-3-3-3-3-3-3-3-3-3-3-3-3-3-|-3-3-3-3-3-3-3-3-8-8-8-8-8-8-8-8-|
|-1-1-1-1-1-1-1-1-3-3-3-3-3-3-3-3-|-1-1-1-1-1-1-1-1-6-6-6-6-6-6-6-6-|
|-----------------1-1-1-1-1-1-1-1-|---------------------------------|
  touch me with your  love    and reveal to me my   true   name




chorus


  D5               F5     C5           
|---------------------------------|---------------------------------|
|---------------------------------|---------------------------------|
|-7-7-7-7-7-7-7-7-7-7-7-7-7-7-7-7-|-----------------5-5-5-5-5-5-5-5-|
|-7-7-7-7-7-7-7-7-7-7-7-7-7-7-7-7-|-3-3-3-3-3-3-3-3-5-5-5-5-5-5-5-5-|
|-5-5-5-5-5-5-5-5-5-5-5-5-5-5-5-5-|-3-3-3-3-3-3-3-3-3-3-3-3-3-3-3-3-|
|---------------------------------|-1-1-1-1-1-1-1-1-----------------|

      oh  how  I  wish for soothing rain oh how I   wish to dream a- gain


  D5               F5     C5           
|---------------------------------|---------------------------------|
|---------------------------------|---------------------------------|
|-7-7-7-7-7-7-7-7-7-7-7-7-7-7-7-7-|-----------------5-5-5-5-5-5-5-5-|
|-7-7-7-7-7-7-7-7-7-7-7-7-7-7-7-7-|-3-3-3-3-3-3-3-3-5-5-5-5-5-5-5-5-|
|-5-5-5-5-5-5-5-5-5-5-5-5-5-5-5-5-|-3-3-3-3-3-3-3-3-3-3-3-3-3-3-3-3-|
|---------------------------------|-1-1-1-1-1-1-1-1-----------------|

      my loving   heart lost in the dark for hope i'd give my every-  thing



  D5 (let it ring)     C5 (let it ring)
|---------------------------------|---------------------------------|
|---------------------------------|---------------------------------|
|-7-------------------------------|-5-------------------------------|
|-7-------------------------------|-5-------------------------------|
|-5-------------------------------|-3-------------------------------|
|---------------------------------|---------------------------------|

      oh  how  I  wish for soothing rain oh how I   wish to dream a- gain


  D5 (let it ring)
|---------------------------------|---------------------------------|
|---------------------------------|---------------------------------|
|-7-------------------------------|---------------------------------|
|-7-------------------------------|---------------------------------|
|-5-------------------------------|---------------------------------|
|---------------------------------|---------------------------------|






  D5     D5
|---------------------------------|---------------------------------|
|---------------------------------|---------------------------------|
|-7-------------------------------|-7-------------------------------|
|-7-------------------------------|-7-------------------------------|
|-5-------------------------------|-5-------------------------------|
|---------------------------------|---------------------------------|





             D5              D5

|------------|-----------------------------------|
|------------|-----------------------------------|
|-10/12109-|-7-7-7-7-7--7-7---7-7-7-10/12109-|
|-10/12109-|-7-7-7-7-7--7-7---7-7-7-10/12109-|
|--8/10-87-|-5-5-5-5-5--5-5---5-5-5--8/10-87-|
|------------|-----------------------------------|

  D5 D5      D5

|--------------------------------|-----------------------------------|
|--------------------------------|-----------------------------------|
|-7-7-7-7-7--7-7---7-7-7-7-7-7-7-|-7-7-7-7-7--7-7---7-7-7-10/12109-|
|-7-7-7-7-7--7-7---7-7-7-7-7-7-7-|-7-7-7-7-7--7-7---7-7-7-10/12109-|
|-5-5-5-5-5--5-5---5-5-5-5-5-5-5-|-5-5-5-5-5--5-5---5-5-5--8/10-87-|
|--------------------------------|-----------------------------------|



  D5 F5  C5
|---------------------------------|
|---------------------------------|
|-7-7-7-7-7--7-7---7-7-7--10--5---|
|-7-7-7-7-7--7-7---7-7-7--10--5---|
|-5-5-5-5-5--5-5---5-5-5---8--3---|
|---------------------------------|



solo

|--------------------------------|----------------------------------------|
|-----18-------------------------|-----13-----13-----15-15-13-13-17-17-15-|
|-19----19~~~-----------10-10-12-|-14----10-12--14---14-14-14-14-14-14-14-|
|--------------------------------|----------------------------------------|
|--------------------------------|----------------------------------------|
|--------------------------------|----------------------------------------|

  D5       F5      C5
|-------------------------------------------|---------------10-----|
|-10---13-10-12-10--------------------------|-----------10----13b--|
|------------------13-12-10-12-10-----------|-10---10-12-----------|
|---------------------------------12-10b~~~-|---12~----------------|
|-------------------------------------------|----------------------|
|-------------------------------------------|----------------------|



  F5     F5
|---------------------------------|---------------------------------|
|---------------------------------|---------------------------------|
|---------------------------------|---------------------------------|
|-3-3-3-3-3--3-3----3-3-3-3-3-3-3-|-3-3-3-3-3--3-3----3-3-3-3-3-3-3-|
|-3-3-3-3-3--3-3----3-3-3-3-3-3-3-|-3-3-3-3-3--3-3----3-3-3-3-3-3-3-|
|-1-1-1-1-1--1-1----1-1-1-1-1-1-1-|-1-1-1-1-1--1-1----1-1-1-1-1-1-1-|

  Ne-     mo      sai-    ling      heart


  F5     F5     Db5 Eb5
|---------------------------------|---------------------------------|
|---------------------------------|---------------------------------|
|---------------------------------|-----------------6-------8-------|
|-3-3-3-3-3--3-3----3-3-3-3-3-3-3-|-3-3-3-3-3--3-3--4-------6-------|
|-3-3-3-3-3--3-3----3-3-3-3-3-3-3-|-3-3-3-3-3--3-3--4-------6-------|
|-1-1-1-1-1--1-1----1-1-1-1-1-1-1-|-1-1-1-1-1--1-1------------------|

  Ne-     mo      let     it        go



chorus

  F5               Ab5     Eb5           
|---------------------------------|---------------------------------|
|---------------------------------|---------------------------------|
|---------------------------------|-----------------8-8-8-8-8-8-8-8-|
|-3-3-3-3-3-3-3-3-3-3-3-3-3-3-3-3-|-6-6-6-6-6-6-6-6-8-8-8-8-8-8-8-8-|
|-3-3-3-3-3-3-3-3-3-3-3-3-3-3-3-3-|-6-6-6-6-6-6-6-6-6-6-6-6-6-6-6-6-|
|-1-1-1-1-1-1-1-1-1-1-1-1-1-1-1-1-|-4-4-4-4-4-4-4-4-----------------|

      oh  how  I  wish for soothing rain oh how I   wish to dream a- gain


  F5               Ab5     Eb5           
|---------------------------------|---------------------------------|
|---------------------------------|---------------------------------|
|---------------------------------|-----------------8-8-8-8-8-8-8-8-|
|-3-3-3-3-3-3-3-3-3-3-3-3-3-3-3-3-|-6-6-6-6-6-6-6-6-8-8-8-8-8-8-8-8-|
|-3-3-3-3-3-3-3-3-3-3-3-3-3-3-3-3-|-6-6-6-6-6-6-6-6-6-6-6-6-6-6-6-6-|
|-1-1-1-1-1-1-1-1-1-1-1-1-1-1-1-1-|-4-4-4-4-4-4-4-4-----------------|

      my loving   heart lost in the dark for hope i'd give my every-  thing


  F5               Ab5     Eb5           
|---------------------------------|---------------------------------|
|---------------------------------|---------------------------------|
|---------------------------------|-----------------8-8-8-8-8-8-8-8-|
|-3-3-3-3-3-3-3-3-3-3-3-3-3-3-3-3-|-6-6-6-6-6-6-6-6-8-8-8-8-8-8-8-8-|
|-3-3-3-3-3-3-3-3-3-3-3-3-3-3-3-3-|-6-6-6-6-6-6-6-6-6-6-6-6-6-6-6-6-|
|-1-1-1-1-1-1-1-1-1-1-1-1-1-1-1-1-|-4-4-4-4-4-4-4-4-----------------|

      oh  how  I  wish for soothing rain oh how I   wish to dream a-  gain


  F5               Ab5     Eb5           
|---------------------------------|---------------------------------|
|---------------------------------|---------------------------------|
|---------------------------------|-----------------8-8-8-8-8-8-8-8-|
|-3-3-3-3-3-3-3-3-3-3-3-3-3-3-3-3-|-6-6-6-6-6-6-6-6-8-8-8-8-8-8-8-8-|
|-3-3-3-3-3-3-3-3-3-3-3-3-3-3-3-3-|-6-6-6-6-6-6-6-6-6-6-6-6-6-6-6-6-|
|-1-1-1-1-1-1-1-1-1-1-1-1-1-1-1-1-|-4-4-4-4-4-4-4-4-----------------|



  F5               Ab5     Eb5           
|---------------------------------|---------------------------------|
|---------------------------------|---------------------------------|
|---------------------------------|-----------------8-8-8-8-8-8-8-8-|
|-3-3-3-3-3-3-3-3-3-3-3-3-3-3-3-3-|-6-6-6-6-6-6-6-6-8-8-8-8-8-8-8-8-|
|-3-3-3-3-3-3-3-3-3-3-3-3-3-3-3-3-|-6-6-6-6-6-6-6-6-6-6-6-6-6-6-6-6-|
|-1-1-1-1-1-1-1-1-1-1-1-1-1-1-1-1-|-4-4-4-4-4-4-4-4-----------------|

                              name forever      more


  F5               Ab5     Eb5           
|---------------------------------|---------------------------------|
|---------------------------------|---------------------------------|
|---------------------------------|-----------------8-8-8-8-8-8-8-8-|
|-3-3-3-3-3-3-3-3-3-3-3-3-3-3-3-3-|-6-6-6-6-6-6-6-6-8-8-8-8-8-8-8-8-|
|-3-3-3-3-3-3-3-3-3-3-3-3-3-3-3-3-|-6-6-6-6-6-6-6-6-6-6-6-6-6-6-6-6-|
|-1-1-1-1-1-1-1-1-1-1-1-1-1-1-1-1-|-4-4-4-4-4-4-4-4-----------------|

(repeat 3x then fade out)


Enviada por Lari_PurpleHair
Nº de acordes: 9