Nightwish

Nemo Solo

Nightwish

1.523 exibições
  • Violão
  • Guitarra
  • Teclado
  • Cavaquinho
  • Contra-baixo
  • Bateria
  • Gaita
  • Guitar Pro
E|-----15------------------------------------------------|
B|-/17----17-~--------12-15-------15-12~-17171515/202017-|
G|-------------/12-14-------12-14--------16161414/191916-|
D|-------------------------------------------------------|
A|-------------------------------------------------------|
E|-------------------------------------------------------|

E|--------------------------------------------------------------------12----|
B|-12--12-12-15-12-14-12-15-14-12----------------------12----------12----15~|
G|--------------------------------14-13-11-------------12----12-14----------|
D|-----------------------------------------14-13-12b~-----14~---------------|
A|--------------------------------------------------------------------------|
E|--------------------------------------------------------------------------|


Enviada por Lari_PurpleHair
Nº de acordes: 0