Nickelback & Josey Scott
Tom: Am

Riff1 Verse (Acoustic)
e-----------------------------------------
B-1-0--1-0-------------1-0--1-0-----------
G-2-2--2-2-------------2-2--2-2-----------
D-2-2--2-2--3-3-3-3----2-2--2-2--3-3-3-3--
A-----------3-3-3-3--------------3-3-3-3--
E-----------1-1-1-1--------------1-1-1-1—
  AmA2 AmA2 F          AmA2 AmA2 F

Drum snares
[Verse1] (Riff1)
Am   Asus2   Am         Asus2      F
        I am so high__, I can hear hea__ve________en____
Am   Asus2     Am         Asus2      F
        I__ am so high__, I can hear hea__ve_____e__en__
          G#5             A#5 
Whoa, but heaven___   no, heaven___ don't hear
F5 (pm) / / / / / / /   [nc]
me_______________  And they say
[Chorus1] (distortion)
       G#5                            A#5
That a he__ro__ could save us__   I'm not gonna stand here and
C5
wait___________    I'll hold onto
    G#5                      A#5
the wings__ of the eagles__  Watch as we all fly
F5 (pm) / / / / / / /   [nc]
away___________
[Verse2] (Riff1)
Am   Asus2     Am        Asus2          F
       Someone told me   love would all save us_________
Am   Asus2          Am        Asus2          F
       But, how can that be   look what love gave us__________
                G#5                A#5
A world full of killing  And blood spilling  That world never
F5 (pm) / / / / / / /   [nc]
came______________  And they say
[Chorus2] (distortion)
       G#5                            A#5
That a he__ro__ could save us__   I'm not gonna stand here and
C5
wait___________    I'll hold onto
    G#5                      A#5
the wings__ of the eagles__  Watch as we all fly
F5 (pm) / / / / / / /   
away___________     Aaaaaaahaaaaahaaaaaaaaaah
[Solo]
G#5   A#5   C5
G#5   A#5   F5 (pm) / / / / / / /   [nc]

[Solo] 
-----------------------------------------------------
-----------------------------------------------------
-----------------------------------------------------
-----------------------------------------------------
-6p5-6p5-6p5-----6p5-6p5-6p5-------------------------
--------------8--------------6--8-8-8-8--10-10-10-10-
                                  * * *     ** ** ** 
-------------------------------------------------------------------------
-------------------------------------------------------------------------
-------------------------------------------------------------------------
-------------------------------------------------------------------------
-10p8-10p8-10p8-----------10p8-10p8-10p8-------------6-6-6--8-8-8--10-10-
-----------------11----------------------10---8-8-8----------------------

Riff2 Bridge (Pick)
e--------------------8p6--------------10--8-------10p8-----
B---4------------6-------6--------8---------8---8------8---
G-----5---5--------7-------7----9---9-----------9--------9-
D-----------6----------------------------------------------
A-------6--------------------------------------------------
E-4------------6--------------8---------------8------------
e-------6--4---------8p6---------------------------
B---4--------4-----6-----6-------------------------
G-----5-----------7--------7-----------------------
D-----------------------------3-3-3-3-3-3-3-3-3-3--
A-----------------------------3-3-3-3-3-3-3-3-3-3--
E-4------------6--------------1-1-1-1-1-1-1-1-1-1--
[Bridge]
             G#                       A#                       C
Now that the world isn't ending  It's love that I'm sending to you______
             G#                   A#
It isn't the love of a hero   And that's why I fear it won't
F (pm) / / / / / [nc]
do________ And they say
[Chorus3] (distortion)
       G#5                            A#5
That a he__ro__ could save us__   I'm not gonna stand here and
C5
wait___________    I'll hold onto
    G#5                      A#5
the wings__ of the eagles__  Watch as we all fly
F5 (pm) / / / / / / /   
away___________     And they're watching us
        G#5                                    A#5
                   They're watching us            As we all fly 
       (watching us)                  (watching us)
C5
away_________ yeah      And they're watching us
        G#5                                    A#5
                   They're watching us            As we all fly 
       (watching us)                  (watching us)
F5
way_____ yeah yeah    whooo_ooooh________


Enviada por Sem inscrição
Nº de acordes: 11