Nazareth

Miss Misery

Nazareth

135 exibições
  • Violão
  • Guitarra
  • Teclado
  • Cavaquinho
  • Contra-baixo
  • Bateria
  • Gaita
  • Guitar Pro
Intro
------------------------------|
------------------------------|
------------------------------|
--------------9---7-----------|
--7---9---9---7---5---9---9---|
--5---7---7-----------7---7---|

Main
-------------------------------------------|
-------------------------------------------|
-------------------------------------------|
--------------7---9---9---9---7------------|
--7---9---9---5---7---7---7---5---7---9---9|
--5---7---7-----------------------5---7---7|

Entry to Chorus
-------------------------------------------|
-------------------------------------------|
-------------------------------------------|
------9---9-------9---9---9---7------------|
--7---7---7---7---7---7---7---5---7---9---9|
--5-----------5-------------------5---7---7|

Chorus
----------------------------------------------------------------------------|
----------------------------------------------------------------------------|
----------------------------------------------------------------------------|
----------------------------------------------------------------------------|
--------------------------------------------------------------7--5----------|
---3---5---5---7---7---3---5---5---7---7---3---5---5---7---7--------5--7---7|

How the song goes=
Intro x2
Main  x4
Entry to Chorus  x1
Chorus  x2
Main  x4
Entry to Chorus  x1
Chorus  x2
Main  x4
Solo
Chorus x4


Enviada por Sem inscrição
Nº de acordes: 0