Nazareth

Dream On

Nazareth

302 exibições
 INTRO + VERSE:
           D                              A
e[-----2-------2---------3-------3---------------------------------------]
B[---3---3---3---3-----3---3---3---3------3-------3----------------------]
G[-2-------2---------0-------0--------3-3---3---3---3--------------------]
D[-0-----------------0----------------3-------3--------------------------]
A[-----------------------------------------------------------------------]
E[-----------------------------------------------------------------------] 

 

           0:40 , 1:37

e[-------------------3-3--3-3--3-------------------------------------------]
B[-3-3-2-2-3--3--3---3-3--2-2----2-----------------------------------------]
G[-3-3-3-3-3--3--3---0-0--3-3------3---------------------------------------]
D[-3-3-3-3-3--3--3---0-0---------------------------------------------------]
A[-------------------2-2---------------------------------------------------]
E[-------------------3-3---------------------------------------------------] 

 

 Solo: 2:03  
              
E|---------------------------|---------------------------|
B|-----7/8/7------8/10-------|-----8-------8---10/12-----|
G|-7-9--------9-7------------|---------------------------|
D|---------------------------|--7/9---7/9----------------|
A|---------------------------|---------------------------|
E|---------------------------|---------------------------|

E|---------------------------|---------------10----------|
B|---------------------------|---------8/10------10------|
G|-----11/12-11/9/11-9-7-----|-----7/9-------------------|
D|---------------------------|---------------------------|
A|---------------------------|---------------------------|
E|---------------------------|---------------------------|


Enviada por Sem inscrição
Nº de acordes: 2