Nando Reis

Por Onde Andei

Nando Reis

1.557 exibições
Intro: 


E|--------------------------------------------------------------------------|
B|--------------------------------------------------------------------------|
G|----------0---------------------------------------------0-----------------|  2x
D|-----0h2-----2---2---------------0------------------0h3---3---3-----------|
A|--3------------3---3--3--0---0h2---2---2--2--2h3/5----------0---0--0--5--3|
E|---------------------------3---------3------------------------------------|


Desculpe estou um pouco atrasado...

E|-----------------------------------------------------------------------------------|
B|-----------------------------------------------------------------------------------|
G|----------0---------------------------------------------0--------------------------|  2x
D|-----0h2-----2---2---------------0------------------0h3---3---3--------------------|
A|--3------------3---3--3--0---0h2---2---2--2--2h3/5----------0---0--0--5--3--3--3--3|
E|---------------------------3---------3---------------------------------------------|

Refrão: 

  C  
     Por onde andei   
                 G  
     Enquanto você me procurava   
     Bb                        F               
     Será que eu sei que você mesmo é tudo 
                            C    G Dm F  
      aquilo que me faltava?   


Amor eu sinto a sua falta...

E|-----------------------------------------------------------------------------------|
B|-----------------------------------------------------------------------------------|
G|----------0---------------------------------------------0--------------------------|  2x
D|-----0h2-----2---2---------------0------------------0h3---3---3--------------------|
A|--3------------3---3--3--0---0h2---2---2--2--2h3/5----------0---0--0--5--3--3--3--3|
E|---------------------------3---------3---------------------------------------------|

Repete o refrão


Enviada por mansonkiller
Nº de acordes: 5