Metallica

The Unforgiven

Metallica

1.843 exibições
Pode tocar no violão ou guitarra!

Legenda:
 / = slide 
 h = hammer on 
 p = pull off
 20(21)= bend de meio tom acima
 20(22) ou ^ = bend de um tom acima
 ~ = deixa soar
 x = tocar abafado.


e|---------------------------------|---------------------------------|---------------------------------|
B|---0-----0-----0-----0------1----|---0-----0-----0-----0------1----|---0-----0-----0-----0------1----|
G|-----2-----2-----2-----2------2--|-----2-----2-----2-----2------2--|-----2-----2-----2-----2------2--|
D|-------2-----2-----2-----2------2|-------2-----2-----2-----2------2|-------2-----2-----2-----2------2|
A|---0-----------------------------|---0-----------------------------|---0-----------------------------|
E|---------------------------------|---------------------------------|---------------------------------|
GUITAR 1 (acoustic)

GUITAR 2 (electric)
e|---------------------------------|---------------------------------|---------------------------------|
B|---------------------------------|---------------------------------|---------------------------------|
G|---------------------------------|---------------------------------|---------------------------------|
D|---------------------------------|---------------------------------|---------------------------------|
A|---------------------------------|---------------------------------|---------------------------------|
E|---------------------------------|---------------------------------|---------------------------------|





e|---------------------------------|---------------------------------|---------------------------------|
B|---0-----0-----0-----0------1----|---0-----0-----0-----1------1----|---0-----0-----1-----1------1----|
G|-----2-----2-----2-----2------2--|-----2-----2-----2-----2------2--|-----2-----2-----2-----2------2--|
D|-------2-----2-----2-----2------2|-------2-----2-----2-----2------2|-------2-----2-----2-----2------2|
A|---0-----------------------------|---0-----------------------------|---0-----------------------------|
E|---------------------------------|---------------------------------|---------------------------------|
GUITAR 1 (acoustic)

GUITAR 2 (electric)
e|---------------------------------|---------------------------------|---------------------------------|
B|---------------------------------|---------------------------------|---------------------------------|
G|---------------------------------|---2----4--5------5--4---2-------|----2----4/5---------5---2-------|
D|---------------------------------|---------------------------------|---------------------------------|
A|---------------------------------|---------------------------------|---------------------------------|
E|---------------------------------|---------------------------------|---------------------------------|





e|---------------------------------|---------------------------------|---------------------------------|
B|---0-----0-----0-----1------1----|---0-----0-----1-----1------1----|--------0--1------1------1-------|
G|-----2-----2-----2-----2------2--|-----2-----2-----2-----2------2--|------2--------------------------|
D|-------2-----2-----2-----2------2|-------2-----2-----2-----2------2|----2-----------2-----2----------|
A|---0-----------------------------|---0-----------------------------|--0-----------3------------------|
E|---------------------------------|---------------------------------|---------------------------------|
GUITAR 1 (acoustic)

GUITAR 2 (electric)
e|---------------------------------|---------------------------------|---------------------------------|
B|---------------------------------|---------------------------------|---------------------------------|
G|---2----4/5------5--4---2--------|----2----4/5---------5---2-------|---2--4/5---4/5-----5---5--------|
D|---------------------------------|---------------------------------|---------------------------------|
A|---------------------------------|---------------------------------|---------------------------------|
E|---------------------------------|---------------------------------|---------------------------------|



e|---------------------------------|---------------------0----0------|---------------------------------|
B|---------------------------------|----------0--1----------1--------|--1-3-0----3---------------------|
G|-------0-----0---------2/4-------|--2-----2------------------------|-------------1--1--4--1---2/4----|
D|-----0----------2--2-2-----------|------2-----------2--------------|---------------------------------|
A|---------------------------------|----0-----------3----------------|---------------------------------|
E|--3-------3----------------------|---------------------------------|---------3-----------------------|
GUITAR 1 (acoustic)

GUITAR 2 (electric)
e|---------------------------------|---------------------------------|---------------------------------|
B|---------------------------------|--------------------5---5--------|--5p3----------------------------|
G|-5p4----4-----2---2/4---2--------|--2----4-----4/5-----------------|-------4----4/1--2-2/4---2-------|
D|-----5-----2---------------------|---------------------------------|---------------------------------|
A|---------------------------------|---------------------------------|---------------------------------|
E|---------------------------------|---------------------------------|---------------------------------|



e|---------------------------------|---------------------------------|---------------------------------|
B|---0-----0-----0-----0------1----|---0-----0-----0-----0------1----|---------------------------------|
G|-----2-----2-----2-----2------2--|-----2-----2-----2-----2------2--|---------------------------------|
D|-------2-----2-----2-----2------2|-------2-----2-----2-----2------2|---------------------------------|
A|---0-----------------------------|---0-----------------------------|---------------------------------|
E|---------------------------------|---------------------------------|---------------------------------|
GUITAR 1 (acoustic)

GUITAR 2 (electric)
e|---------------------------------|---------------------------------|---------------------------------|
B|---------------------------------|---------------------------------|---------------------------------|
G|---------------------------------|---------------------------------|---------------------------------|
D|---------------------------------|---------------------------------|---------------------------------|
A|---------------------------------|---------------------------------|---------------------------------|
E|---------------------------------|---------------------------------|---------------------------------|



e|---------------------------------|---------------------------------|---------------------------------|
B|---------------------------------|---------------------------------|---------------------------------|
G|---------------------------------|---------------------------------|---------------------------------|
D|-2--2--2---5---------------------|---7--7--7--7---2---2------------|-2--2--2---5---------------------|
A|-0--0--0---3--2---2--------------|---5--5--5--5---0---0----x-x-x---|-0--0--0---3--2---2--------------|
E|--------------0---0-------x-x-x--|---------------------------------|--------------0---0-------x-x-x--|
GUITAR 1 (distorcion)

GUITAR 2 (distorcion)
e|---------------------------------|---------------------------------|---------------------------------|
B|---------------------------------|---8--8-----7---7----------------|---------------------------------|
G|-7---5---4----4h5p4--------------|---------------------5-5---------|-7---5---4----4h5p4--------------|
D|---------------------5-----------|---------------------------------|--------------------- 5----------|
A|---------------------------------|---------------------------------|---------------------------------|
E|---------------------------------|---------------------------------|---------------------------------|

   New blood joins this earth          And quickly he's subdued        Though constant pained desgrace





e|---------------------------------|---------------------------------|---------------------------------|
B|---------------------------------|---------------------------------|---------------------------------|
G|---------------------------------|---------------------------------|---------------------------------|
D|---7--7--7--7---2---2------------|-2--2--2---5---------------------|---7--7--7--7---2---2------------|
A|---5--5--5--5---0---0------x-x-x-|-0--0--0---3--2---2--------------|---5--5--5--5---0---0------x-x-x-|
E|---------------------------------|--------------0---0-------x-x-x--|---------------------------------|
GUITAR 1 (distorcion)

GUITAR 2 (distorcion)
e|---------------------------------|---------------------------------|---------------------------------|
B|---8---8---7----7----------------|---------------------------------|---8---8---7----7----------------|
G|--------------------5---5--------|-7---5---4----4h5p4--------------|--------------------5---5--------|
D|---------------------------------|---------------------5-----------|---------------------------------|
A|---------------------------------|---------------------------------|---------------------------------|
E|---------------------------------|---------------------------------|---------------------------------|

  The young boy learns their rules  With time the child draws in      This whipping boy done wrong





e|---------------------------------|-------------------------------------------------------------------|
B|---------------------------------|-------------------------------------------------------------------|
G|---------------------------------|-------------------------------------------------------------------|
D|-2--2--2---5---------------------|---7--7--7--7---2---2----------------------------------------------|
A|-0--0--0---3--2---2--------------|---5--5--5--5---0---0----------------------------------------------|
E|--------------0---0-------x-x-x--|-------------------------------------------------------------------|
GUITAR 1 (distorcion)

GUITAR 2 (distorcion)
e|---------------------------------|-------------------------------------------------------------------|
B|---------------------------------|---8---8---7----7--------------------------------------------------|
G|-7---5---4----4h5p4--------------|--------------------5----5--------4--------2--------0--------------|
D|----------------------5----------|--------------------------0--------0--------0--------0--------5----|
A|---------------------------------|----------------------------0-0------0-0------0-0------0-0----3----|
E|---------------------------------|-------------------------------------------------------------------|

  Deprived of all his thoughts       The young man struggles on and on he's known              Uuuuooo






e|---------------------------------|-------------------------------------------------------------------|
B|---------------------------------|-------------------------------------------------------------------|
G|---------------------------------|-------------------------------------------------------------------|
D|---------------------------------|-------------------------------------------------------------------|
A|-5----3----0-----5---------------|------------------------------------------5----3----0-----5--------|
E|-----------------3---------------|----------------------------------------------------------3--------|
GUITAR 1 (distorcion)

GUITAR 2 (distorcion)
e|---------------------------------|-------------------------------------------------------------------|
B|---------------------------------|-------------------------------------------------------------------|
G|---------------------------------|-5--------4--------2--------0--------------------------------------|
D|---------------------------------|--0--------0--------0--------0--------5----------------------------|
A|-5----3----0-----5---------------|----0-0------0-0------0-0------0-0----3---5----3----0-----5------2-|
E|-----------------3---------------|----------------------------------------------------------3------0-|

   A vow unto his own               That never from this day            His will they'll take away 





                                          -= REFRÃO =-
e|---------------------------------|------------------------------------|---------------------0----0------|
B|--------0--1------1------1-------|------------------------------------|----------0--1----------1--------|
G|------2--------------------------|-------0------0-----------2/4---2---|--------2------------------------|
D|----2-----------2-----2----------|-----0-----------2---2-2------------|------2-----------2--------------|
A|--0-----------3------------------|------------------------------------|----0-----------3----------------|
E|---------------------------------|--3-------3-------------------------|---------------------------------|
GUITAR 1 (acoustic)

GUITAR 2 (electric)
e|---------------------------------|------------------------------------|---------------------------------|
B|---------------------------------|------------------------------------|--------------------5---5--------|
G|---2--4/5---4/5-----5---5--------|-5p4----4------2----2/4----------2--|--2----4-----4/5-----------------|
D|---------------------------------|-----5-----2------------------------|---------------------------------|
A|---------------------------------|------------------------------------|---------------------------------|
E|---------------------------------|------------------------------------|---------------------------------|

   What I've felt What I've known  Never shined through in what I've shown    Never be      Never see





e|---------------------------------|---------------------------------|------------------------------------|
B|--1-3-0----3---------------------|--------0--1------1------1-------|------------------------------------|
G|-------------1--1--4--1---2/4----|------2--------------------------|-------0------0-----------2/4---2---|
D|---------------------------------|----2-----------2-----2----------|-----0-----------2---2-2------------|
A|---------------------------------|--0-----------3------------------|------------------------------------|
E|--------3------------------------|---------------------------------|---3-------3------------------------|
GUITAR 1 (acoustic)

GUITAR 2 (electric)
e|---------------------------------|---------------------------------|------------------------------------|
B|--5p3----------------------------|---------------------------------|------------------------------------|
G|-------4----4/1--2-2/4---2-------|---2--4/5---4/5-----5---5--------|-5p4----4------2----2/4---------2---|
D|---------------------------------|---------------------------------|-----5-----2------------------------|
A|---------------------------------|---------------------------------|------------------------------------|
E|---------------------------------|---------------------------------|------------------------------------|
  
  Won't see what might have been     What I've felt What I've known Never shined through in what I've shown





e|---------------------0----0------|---------------------------------|---------------------------------|
B|----------0--1----------1--------|--1-3-0----3---------------------|--0-----0-----0-----1------------|
G|--------2------------------------|-------------1--1--4--1---2/4----|----2-----2-----2-----2----------|
D|------2-----------2--------------|---------------------------------|------2-----2-----2-----2--------|
A|----0-----------3----------------|---------------------------------|--0------------------------------|
E|---------------------------------|--------3------------------------|---------------------------------|
GUITAR 1 (acoustic)

GUITAR 2 (electric)
e|---------------------------------|---------------------------------|---------------------------------|
B|--------------------5---5--------|---5p3---------------------------|---------------------------------|
G|--2----4-----4/5-----------------|-------4----4/1--2-2/4---2-------|---------------------------------|
D|---------------------------------|---------------------------------|---------------------------------|
A|---------------------------------|---------------------------------|---------------------------------|
E|---------------------------------|---------------------------------|---------------------------------|
 
  Never free        Never me          So a dub thee unforgiven




e|---------------------------------|---------------------------------|---------------------------------|
B|---------------------------------|---------------------------------|---------------------------------|
G|---------------------------------|---------------------------------|---------------------------------|
D|-2--2--2---5---------------------|---7--7--7--7---2---2------------|-2--2--2--5----------------------|
A|-0--0--0---3--2---2--------------|---5--5--5--5---0---0----x-x-x---|-0--0--0--3---2---2--------------|
E|--------------0---0-------x-x-x--|---------------------------------|--------------0---0-------x-x-x--|
GUITAR 1 (distorcion)

GUITAR 2 (distorcion)
e|---------------------------------|---------------------------------|---------------------------------|
B|---------------------------------|---8--8-----7---7----------------|---------------------------------|
G|-7---5---4----4h5p4--------------|---------------------5-5---------|-7---5---4----4h5p4--------------|
D|---------------------5-----------|---------------------------------|--------------------- 5----------|
A|---------------------------------|---------------------------------|---------------------------------|
E|---------------------------------|---------------------------------|---------------------------------|

They dedicate their lives             To running all of his            He tries to please them all





e|---------------------------------|---------------------------------|---------------------------------|
B|---------------------------------|---------------------------------|---------------------------------|
G|---------------------------------|---------------------------------|---------------------------------|
D|---7--7--7--7---2---2------------|-2--2--2--5----------------------|---7--7--7--7---2---2------------|
A|---5--5--5--5---0---0------x-x-x-|-0--0--0--3---2---2--------------|---5--5--5--5---0---0------x-x-x-|
E|---------------------------------|--------------0---0-------x-x-x--|---------------------------------|
GUITAR 1 (distorcion)

GUITAR 2 (distorcion)
e|---------------------------------|---------------------------------|---------------------------------|
B|---8---8---7----7----------------|---------------------------------|---8---8---7----7----------------|
G|--------------------5---5--------|-7---5---4----4h5p4--------------|--------------------5---5--------|
D|---------------------------------|---------------------5-----------|---------------------------------|
A|---------------------------------|---------------------------------|---------------------------------|
E|---------------------------------|---------------------------------|---------------------------------|

  This bitter man he is              Thoroughout his life the same      He's battled constantly 





e|---------------------------------|-------------------------------------------------------------------|
B|---------------------------------|-------------------------------------------------------------------|
G|---------------------------------|-------------------------------------------------------------------|
D|-2--2--2--5----------------------|---7--7--7--7---2---2----------------------------------------------|
A|-0--0--0--3---2---2--------------|---5--5--5--5---0---0----------------------------------------------|
E|--------------0---0-------x-x-x--|-------------------------------------------------------------------|
GUITAR 1 (distorcion)

GUITAR 2 (distorcion)
e|---------------------------------|-------------------------------------------------------------------|
B|---------------------------------|---8---8---7----7--------------------------------------------------|
G|-7---5---4----4h5p4--------------|--------------------5----5--------4--------2--------0--------------|
D|----------------------5----------|--------------------------0--------0--------0--------0--------5----|
A|---------------------------------|----------------------------0-0------0-0------0-0------0-0----3----|
E|---------------------------------|-------------------------------------------------------------------|

  This fight he cannot win              A tired man they see     no longer cares              






e|---------------------------------|-------------------------------------------------------------------|
B|---------------------------------|-------------------------------------------------------------------|
G|---------------------------------|-------------------------------------------------------------------|
D|---------------------------------|-------------------------------------------------------------------|
A|-5----3----0-----5---------------|------------------------------------------5----3----0-----5--------|
E|-----------------3---------------|----------------------------------------------------------3--------|
GUITAR 1 (distorcion)

GUITAR 2 (distorcion)
e|---------------------------------|-------------------------------------------------------------------|
B|---------------------------------|-------------------------------------------------------------------|
G|---------------------------------|-5--------4--------2--------0--------------------------------------|
D|---------------------------------|--0--------0--------0--------0--------5----------------------------|
A|-5----3----0-----5---------------|----0-0------0-0------0-0------0-0----3---5----3----0-----5------2-|
E|-----------------3---------------|----------------------------------------------------------3------0-|

   The old man then prepares             To die regretfully             That old man here is me 



                                              -= REFRÃO =-
e|---------------------------------|------------------------------------|---------------------0----0------|
B|--------0--1------1------1-------|------------------------------------|----------0--1----------1--------|
G|------2--------------------------|-------0------0-----------2/4---2---|--------2------------------------|
D|----2-----------2-----2----------|-----0-----------2---2-2------------|------2-----------2--------------|
A|--0-----------3------------------|------------------------------------|----0-----------3----------------|
E|---------------------------------|--3-------3-------------------------|---------------------------------|
GUITAR 1 (acoustic)

GUITAR 2 (electric)
e|---------------------------------|------------------------------------|---------------------------------|
B|---------------------------------|------------------------------------|--------------------5---5--------|
G|---2--4/5---4/5-----5---5--------|-5p4----4------2----2/4----------2--|--2----4-----4/5-----------------|
D|---------------------------------|-----5-----2------------------------|---------------------------------|
A|---------------------------------|------------------------------------|---------------------------------|
E|---------------------------------|------------------------------------|---------------------------------|

   What I've felt What I've known  Never shined through in what I've shown    Never be      Never see





e|---------------------------------|---------------------------------|------------------------------------|
B|--1-3-0----3---------------------|--------0--1------1------1-------|------------------------------------|
G|-------------1--1--4--1---2/4----|------2--------------------------|-------0------0-----------2/4---2---|
D|---------------------------------|----2-----------2-----2----------|-----0-----------2---2-2------------|
A|---------------------------------|--0-----------3------------------|------------------------------------|
E|--------3------------------------|---------------------------------|---3-------3------------------------|
GUITAR 1 (acoustic)
 
GUITAR 2 (electric)
e|---------------------------------|---------------------------------|------------------------------------|
B|--5p3----------------------------|---------------------------------|------------------------------------|
G|-------4----4/1--2-2/4---2-------|---2--4/5---4/5-----5---5--------|-5p4----4------2----2/4---------2---|
D|---------------------------------|---------------------------------|-----5-----2------------------------|
A|---------------------------------|---------------------------------|------------------------------------|
E|---------------------------------|---------------------------------|------------------------------------|
  
  Won't see what might have been     What I've felt What I've known Never shined through in what I've shown





e|---------------------0----0------|---------------------------------|---------------------------------|
B|----------0--1----------1--------|--1-3-0----3---------------------|--0-----0-----0-----1------------|
G|--------2------------------------|-------------1--1--4--1---2/4----|----2-----2-----2-----0----------|
D|------2-----------2--------------|---------------------------------|------2-----2-----2-----0--------|
A|----0-----------3----------------|---------------------------------|--0------------------------------|
E|---------------------------------|--------3------------------------|---------------------------------|
GUITAR 1 (acoustic)

GUITAR 2 (electric)
e|---------------------------------|---------------------------------|---------------------------------|
B|--------------------5---5--------|---5p3---------------------------|---------------------------------|
G|--2----4-----4/5-----------------|-------4----4/1--2-2/4---2-------|---------------------------------|
D|---------------------------------|---------------------------------|---------------------------------|
A|---------------------------------|---------------------------------|---------------------------------|
E|---------------------------------|---------------------------------|---------------------------------|
 
  Never free        Never me          So a dub thee unforgiven



e|---------------------------------|---------------------------------|---------------------------------|
B|---0-----0-----0-----0------1----|---0-----0-----0-----0------1----|---0-----0-----0-----0------1----|
G|-----2-----2-----2-----2------2--|-----2-----2-----2-----2------2--|-----2-----2-----2-----2------2--|
D|-------2-----2-----2-----2------2|-------2-----2-----2-----2------2|-------2-----2-----2-----2------2|
A|---0-----------------------------|---0-----------------------------|---0-----------------------------|
E|---------------------------------|---------------------------------|---------------------------------|
GUITAR 1 (acoustic)

GUITAR 2 (electric)
e|---------------------------------|---------------------------------|---------------------------------|
B|---------------------------------|--0--1--3--1---0h1/3-------------|--8/10--8--7--5--3------3--------|
G|----4-5-7-5-4h5p4---4------------|---------------------------------|--7/9---7--7-------5--4----4-----|
D|--7---------------7---5-5h7------|---------------------------------|------------------------------5--|
A|---------------------------------|---------------------------------|---------------------------------|
E|---------------------------------|---------------------------------|---------------------------------|




e|---------------------------------|---------------------------------|---------------------------------|
B|---0-----0-----0-----0------1----|---0-----0-----0-----0------1----|---0-----0-----0-----0------1----|
G|-----2-----2-----2-----2------2--|-----2-----2-----2-----2------2--|-----2-----2-----2-----2------2--|
D|-------2-----2-----2-----2------2|-------2-----2-----2-----2------2|-------2-----2-----2-----2------2|
A|---0-----------------------------|---0-----------------------------|---0-----------------------------|
E|---------------------------------|---------------------------------|---------------------------------|
GUITAR 1 (acoustic)

GUITAR 2 (electric)
e|---------------------------------|--------------------7-------7----|--10------12--------14--------15---17-|
B|---------------------------------|--8--8p7---7--8--10---8---8---8--|-8--8-8/10--10-10/12--12-12/14---14---|
G|--------------------5------------|---------9-----------------------|--------------------------------------|
D|-----------------5----5--5h7-----|---------------------------------|--------------------------------------|
A|---------3/5-6-7-----------------|---------------------------------|--------------------------------------|
E|--3--5---------------------------|---------------------------------|--------------------------------------|


                                        -= SOLO =-


e|---------------------------------|---------------------------------|---------------------------------|
B|---------------------------------|---------------------------------|---------------------------------|
G|---------------------------------|---------------------------------|---------------------------------|
D|-2--2--2---5---------------------|---7--7--7--7---2---2------------|-2--2--2---5---------------------|
A|-0--0--0---3--2---2--------------|---5--5--5--5---0---0----x-x-x---|-0--0--0---3--2---2--------------|
E|--------------0---0-------x-x-x--|---------------------------------|--------------0---0-------x-x-x--|
GUITAR 1 (distorcion)

GUITAR 2 (distorcion)
e|---------------------------------|---------------------------------|----------------------------10---|
B|--7(8)---------------------------|---------------------------------|------------------7---7h8-10--10-|
G|--7(8)----5----------------------|---------------------------------|--5-7-5-7-7/9-7-9---9------------|
D|--------------7----7(8)-(8)------|-5-------------------------------|-7-------------------------------|
A|---------------------------------|----7--5/3--5--3------------3(5)-|---------------------------------|
E|---------------------------------|-------------------5--3--5-------|---------------------------------|





e|---------------------------------|---------------------------------|---------------------------------|
B|---------------------------------|---------------------------------|---------------------------------|
G|---------------------------------|---------------------------------|---------------------------------|
D|---7--7--7--7---2---2------------|-2--2--2--5----------------------|---7--7--7--7---2---2------------|
A|---5--5--5--5---0---0------x-x-x-|-0--0--0--3---2---2--------------|---5--5--5--5---0---0------x-x-x-|
E|---------------------------------|--------------0---0-------x-x-x--|---------------------------------|
GUITAR 1 (distorcion)

GUITAR 2 (distorcion)
e|----8-------10-------------------|-----------------20(21)(23)------|-17-17-20p17---17----------------|
B|-10---10-10----10--20(21)(21)^^^^|^^--20(21)---17------------------|-------------20---20(22)~~~------|
G|---------------------------------|---------------------------------|-------------------------------9-|
D|---------------------------------|---------------------------------|----------------------------17---|
A|---------------------------------|---------------------------------|---------------------------------|
E|---------------------------------|---------------------------------|---------------------------------|





e|-----------------------------------|---------------------------------|---------------------------------|
B|-----------------------------------|---------------------------------|---------------------------------|
G|-----------------------------------|---------------------------------|-5-----4-------2-------0---------|
D|-2--2--2--5------------------------|---7--7--7--7---2---2------------|---0-----0-------0-------0-------|
A|-0--0--0--3---2---2----------------|---5--5--5--5---0---0------x-x-x-|-----0-0---0-0-----0-0-----0-0---|
E|--------------0---0-------x-x-x----|---------------------------------|---------------------------------|
GUITAR 1 (distorcion)

GUITAR 2 (distorcion)
e|10p9-7-9--9------------------------|------12----------12----------12-|-----12------12------12----12----|
B|--------10-8-7--7------------------|---13----13-----------13---------|13-----13------13-----13-----13--|
G|--------------9--9-7/5-7-5/4-5-4-2-|14----------14------------14-----|---14----14------14-----14-----14|
D|-----------------------------------|---------------------------------|---------------------------------|
A|-----------------------------------|---------------------------------|---------------------------------|
E|-----------------------------------|---------------------------------|---------------------------------|





e|---------------------------------|------------------------------------------------------------------|
B|---------------------------------|------------------------------------------------------------------|
G|---------------------------------|--5-------------4-------------2-------------0---------------------|
D|----5----------------------------|-----0------------0--------------0-------------0------------------|
A|----3----5----3--0----5----------|--------0---0--------0---0----------0---0---------0---0-----------|
E|----------------------3----------|------------------------------------------------------------------|
GUITAR 1 (distorcion)

GUITAR 2 (distorcion)
e|---------------------------17-19-|-20-19-17-19-17h19p17----17---------------------------------------|
B|--------------------20^20^ ------|----------------------20^--20-17-----20-17------------------------|
G|-19(21)--19(21)--17--------------|---------------------------------19^------19-19^p17--19^p17-------|
D|---------------------------------|------------------------------------------------------------------|
A|---------------------------------|------------------------------------------------------------------|
E|---------------------------------|------------------------------------------------------------------|





e|---------------------------------|---------------------------------|---------------------------------|
B|---------------------------------|---------------------------------|---------------------------------|
G|---------------------------------|---------------------------------|---------------------------------|
D|---5-----------------------------|---------------------------------|---------------------------------|
A|---3----5-----3-----0-----5------|---2-----------------------------|---2-----------------------------|
E|--------------------------3------|---0-----------------------------|---0-----------------------------|
GUITAR 1 (distorcion)

GUITAR 2 (distorcion)
e|---------------------------------|---------------------------------|---------------------------------|
B|------------------20~~-18h20p18--|---17~~~~~~~~~~~~~~~~~~~~--------|---18p17~~~~~~~~~~~~~~~~---------|
G|-19(21)-19(21)-17-----~----------|---------------------------------|---------------------------------|
D|---------------------------------|---------------------------------|---------------------------------|
A|---------------------------------|---------------------------------|---------------------------------|
E|---------------------------------|---------------------------------|---------------------------------|


                                      -= fim do solo =-



                                        -= REFRÃO =-
e|---------------------------------|------------------------------------|---------------------0----0------|
B|--------0--1------1------1-------|------------------------------------|----------0--1----------1--------|
G|------2--------------------------|-------0------0-----------2/4---2---|--------2------------------------|
D|----2-----------2-----2----------|-----0-----------2---2-2------------|------2-----------2--------------|
A|--0-----------3------------------|------------------------------------|----0-----------3----------------|
E|---------------------------------|--3-------3-------------------------|---------------------------------|
GUITAR 1 (acoustic)

GUITAR 2 (electric)
e|---------------------------------|------------------------------------|---------------------------------|
B|---------------------------------|------------------------------------|--------------------5---5--------|
G|---2--4/5---4/5-----5---5--------|-5p4----4------2----2/4----------2--|--2----4-----4/5-----------------|
D|---------------------------------|-----5-----2------------------------|---------------------------------|
A|---------------------------------|------------------------------------|---------------------------------|
E|---------------------------------|------------------------------------|---------------------------------|

   What I've felt What I've known  Never shined through in what I've shown    Never be      Never see





e|---------------------------------|---------------------------------|------------------------------------|
B|--1-3-0----3---------------------|--------0--1------1------1-------|------------------------------------|
G|-------------1--1--4--1---2/4----|------2--------------------------|-------0------0-----------2/4---2---|
D|---------------------------------|----2-----------2-----2----------|-----0-----------2---2-2------------|
A|---------------------------------|--0-----------3------------------|------------------------------------|
E|--------3------------------------|---------------------------------|---3-------3------------------------|
GUITAR 1 (acoustic)

GUITAR 2 (electric)
e|---------------------------------|---------------------------------|------------------------------------|
B|--5p3----------------------------|---------------------------------|------------------------------------|
G|-------4----4/1--2-2/4---2-------|---2--4/5---4/5-----5---5--------|-5p4----4------2----2/4---------2---|
D|---------------------------------|---------------------------------|-----5-----2------------------------|
A|---------------------------------|---------------------------------|------------------------------------|
E|---------------------------------|---------------------------------|------------------------------------|
  
  Won't see what might have been     What I've felt What I've known Never shined through in what I've shown





e|---------------------0----0------|---------------------------------|---------------------------------|
B|----------0--1----------1--------|--1-3-0----3---------------------|--0-----0-----0-----1------------|
G|--------2------------------------|-------------1--1--4--1---2/4----|----2-----2-----2-----0----------|
D|------2-----------2--------------|---------------------------------|------2-----2-----2-----0--------|
A|----0-----------3----------------|---------------------------------|--0------------------------------|
E|---------------------------------|--------3------------------------|---------------------------------|
GUITAR 1 (acoustic)

GUITAR 2 (electric)
e|---------------------------------|---------------------------------|---------------------------------|
B|--------------------5---5--------|---5p3---------------------------|---------------------------------|
G|--2----4-----4/5-----------------|-------4----4/1--2-2/4---2-------|---------------------------------|
D|---------------------------------|---------------------------------|---------------------------------|
A|---------------------------------|---------------------------------|---------------------------------|
E|---------------------------------|---------------------------------|---------------------------------|
 
  Never free        Never me          So a dub thee unforgiven




   Am       C                     G                    Em                    Am       C

e|-0-0-0-0--0--0--0--0--0--0--0-|-3--3--3--3--3--3--3--0--0--0--0--0--0--0-|-0-0-0-0--0--0--0--0--0--0-|
B|-1-1-1-1--1--1--1--1--1--1--1-|-3--3--3--3--3--3--3--0--0--0--0--0--0--0-|-1-1-1-1--1--1--1--1--1--1-|
G|-2-2-2-2--0--0--0--0--0--0--0-|-0--0--0--0--0--0--0--0--0--0--0--0--0--0-|-2-2-2-2--0--0--0--0--0--0-|
D|-2-2-2-2--2--2--2--2--2--2--2-|-0--0--0--0--0--0--0--2--2--2--2--2--2--2-|-2-2-2-2--2--2--2--2--2--2-|
A|-0-0-0-0--3--3--3--3--3--3--3-|-2--2--2--2--2--2--2--2--2--2--2--2--2--2-|-0-0-0-0--3--3--3--3--3--3-|
E|------------------------------|-3--3--3--3--3--3--3--0--0--0--0--0--0--0-|---------------------------|
GUITAR 1 (acoustic)

GUITAR 2 (distorcion)
e|------------------------------|------------------------------------------|----------------------3----|
B|------------------------------|------------------------------------------|---------3/5------5--------|
G|------------------------------|------------------------------------------|----5----------------------|
D|------------------------------|------------------------------------------|---------------------------|
A|------------------------------|------------------------------------------|---------------------------|
E|------------------------------|------------------------------------------|---------------------------|




   G                 E                      Am       C                      G                    E

e|-3--3--3--3--3--3--0--0--0--0--0--0--0--|-0-0-0-0--0--0--0--0--0--0--0--|-3-3-3-3-3-3-3--0--0--0--0--0--0-|
B|-3--3--3--3--3--3--0--0--0--0--0--0--0--|-1-1-1-1--1--1--1--1--1--1--1--|-3-3-3-3-3-3-3--0--0--0--0--0--0-|
G|-0--0--0--0--0--0--1--1--1--1--1--1--1--|-2-2-2-2--0--0--0--0--0--0--0--|-0-0-0-0-0-0-0--1--1--1--1--1--1-|
D|-0--0--0--0--0--0--2--2--2--2--2--2--2--|-2-2-2-2--2--2--2--2--2--2--2--|-0-0-0-0-0-0-0--2--2--2--2--2--2-|
A|-2--2--2--2--2--2--2--2--2--2--2--2--2--|-0-0-0-0--3--3--3--3--3--3--3--|-2-2-2-2-2-2-2--2--2--2--2--2--2-|
E|-3--3--3--3--3--3--0--0--0--0--0--0--0--|-------------------------------|-3-3-3-3-3-3-3--0--0--0--0--0--0-|
GUITAR 1 (acoustic)

GUITAR 2 (distorcion)
e|-----5~~~~~~~~---7~~~~~~~--8~~~~~~~~----|-------------------------------|---------------------------------|
B|----------------------------------------|-------------------------------|---------------------------------|
G|----------------------------------------|----2----2---4/5----5-----5----|----5----4-------4/1--1----2/4---|
D|----------------------------------------|-------------------------------|----------5----------------------|
A|----------------------------------------|-------------------------------|---------------------------------|
E|----------------------------------------|-------------------------------|---------------------------------|

                                            You labeled me      I'll label you  So a dub thee unforgiven
           

   Am       C                     G                    Em                    Am       C

e|-0-0-0-0--0--0--0--0--0--0--0-|-3--3--3--3--3--3--3--0--0--0--0--0--0--0-|-0-0-0-0--0--0--0--0--0--0-|
B|-1-1-1-1--1--1--1--1--1--1--1-|-3--3--3--3--3--3--3--0--0--0--0--0--0--0-|-1-1-1-1--1--1--1--1--1--1-|
G|-2-2-2-2--0--0--0--0--0--0--0-|-0--0--0--0--0--0--0--0--0--0--0--0--0--0-|-2-2-2-2--0--0--0--0--0--0-|
D|-2-2-2-2--2--2--2--2--2--2--2-|-0--0--0--0--0--0--0--2--2--2--2--2--2--2-|-2-2-2-2--2--2--2--2--2--2-|
A|-0-0-0-0--3--3--3--3--3--3--3-|-2--2--2--2--2--2--2--2--2--2--2--2--2--2-|-0-0-0-0--3--3--3--3--3--3-|
E|------------------------------|-3--3--3--3--3--3--3--0--0--0--0--0--0--0-|---------------------------|
GUITAR 1 (acoustic)

GUITAR 2 (electric)
e|------------------------------|------------------------------------------|---------------------------|
B|--------------------3/5---5---|--5---3-----------------------------------|---------------------------|
G|--2---2---4---4/5-------------|----------4---4/1----1----2---2/4----2----|--2----2---4/5----5---5----|
D|------------------------------|------------------------------------------|---------------------------|
A|------------------------------|------------------------------------------|---------------------------|
E|------------------------------|------------------------------------------|---------------------------|

   You labeled me       I'll label you       So a dub thee unforgiven


   G                 E                      Am       C                      G                    E

e|-3--3--3--3--3--3--0--0--0--0--0--0--0--|-0-0-0-0--0--0--0--0--0--0--0--|-3-3-3-3-3-3-3--0--0--0--0--0--0-|
B|-3--3--3--3--3--3--0--0--0--0--0--0--0--|-1-1-1-1--1--1--1--1--1--1--1--|-3-3-3-3-3-3-3--0--0--0--0--0--0-|
G|-0--0--0--0--0--0--1--1--1--1--1--1--1--|-2-2-2-2--0--0--0--0--0--0--0--|-0-0-0-0-0-0-0--1--1--1--1--1--1-|
D|-0--0--0--0--0--0--2--2--2--2--2--2--2--|-2-2-2-2--2--2--2--2--2--2--2--|-0-0-0-0-0-0-0--2--2--2--2--2--2-|
A|-2--2--2--2--2--2--2--2--2--2--2--2--2--|-0-0-0-0--3--3--3--3--3--3--3--|-2-2-2-2-2-2-2--2--2--2--2--2--2-|
E|-3--3--3--3--3--3--0--0--0--0--0--0--0--|-------------------------------|-3-3-3-3-3-3-3--0--0--0--0--0--0-|
GUITAR 1 (acoustic)

GUITAR 2 (electric)
e|----------------------------------------|-------------------------------|---------------------------------|
B|----------------------------------------|-----------------3/5-----5-----|-5--3----------------------------|
G|--5/3-------4/1----1----2----2/4---2----|--2----2----4/5----------------|-------4---4/1---1---2---2/4--2--|
D|--------4-------------------------------|-------------------------------|---------------------------------|
A|----------------------------------------|-------------------------------|---------------------------------|
E|----------------------------------------|-------------------------------|---------------------------------|




Enviada por Lari_PurpleHair
Nº de acordes: 5