Metallica

Hero Of The Day

Metallica

1.298 exibições
Tom: 
Intro: (f# a f#)   A5  A/B  A/C#  A/D  E   E   E   (f# a f#)
            A5  A/B  A/C#  A/D  E!  E   E*
                    (Mama they try__ and break_ me__)
Riff1a (Intro/verse)
e-----------|-----------------|-----------------|------------------|-----------------
B-----------|-----------------|-----------------|------------------|-----------------
G-----------|-----2-------2---|-----2-------2---|-----4-------4----|-----4-----------
D-----------|---2-------2-----|---2-------2-----|---6---6-------6--|-------6---------
A------0----|-0-------2-------|-4-------5-------|-7---------7------|---7---------0---
E----2---2--|-----------------|-----------------|------------------|-----------2---2-
              A5      A/B       A/C#    A/D       E         E          E     (f# a f#)
Riff1b (Intro/verse)
e-----------------|-----------------|-----------------|----------------------
B-----------------|-----------------|-----------------|----------------------
G-----2-------2---|-----2-------2---|-4-----4-------4-|-------4-4h6h4--------
D---2-------2-----|---2-------2-----|-4h6-------6-----|---6-----------6-6h7--
A-0-------2-------|-4-------5-------|-7---7-------7---|-----7----------------
E-----------------|-----------------|-----------------|----------------------
  A5      A/B       A/C#    A/D       E!          E       E*
[Verse] (drums + bass + clean guitar)
A5  A/B    A/C#      A/D        E   E   E                  (f# a f#) 
       The win_dow__ burns__ to light__ the way back home__
A5  A/B    A/C#      A/D          E!  E   E  (distortion) 
        A light that warms___  no mat_ter where they go___o__o_oo
A5  A/B        A/C#    A/D        E   E   E                (f# a f#) 
        They're off to find__ the he_ro_ of__ the__ day__
A5  A/B          A/C#        A/D       E   E   E 
     But what if they should fall__ by someone's wicked_ way__y__aay
Riff2 (Pre-Chorus lead distortion)
e----------------------|----------------------|-------------------------|-------------------------------
B----------------------|----------------------|-------------------------|-------------------------------
G-------2---------2----|-------2---------2----|--7/-9--9--9~---9--9--9--|--11/-13--13--13--13/-14--14~--
D-------2---------2----|-------2---------2----|-------------------------|-------------------------------
A--0---------2---------|--4---------5---------|--5/-7--7--7~---7--7--7--|--9/--11--11--11--11/-12--12~--
E----------------------|----------------------|-------------------------|-------------------------------
   A5        A/B          A/C#      A/D          d5 e5                     f#5 g#5             a5
[Pre-Chorus1] (Riff2)
           A5       A/B                A/C#      A/D 
Still_ the win_dow_ burns__    Time so slow_ly_  turns__
E (d5  e5                   f#5   g#5    a5)
And someone there is sigh__ing_
        A5     A/B               A/C#       A/D 
Keepers of the flames_    Do you feel_ your name_?
E  (d5  e5                  f#5   g#5    a5)
Did you hear_ your ba_bies_ cry_ing______?
[Bridge] (clean guitar + bass)
A5  A/B  A/C#  A/D  E   E   E
        (Mama they try__ and break_ me__)
A5  A/B  A/C#  A/D  E   E   E
        (Still they try__ and break_ me____)
[Verse] (drums + bass + clean guitar)
A5  A/B    A/C#      A/D       E   E   E                  (f# a f#) 
         Excuse_ me_ while__ I tell_ them how_ to feel___
A5  A/B    A/C#       A/D           E!  E   E  (distortion) 
     These things_ we turn_ to me__ that still seem rea_____ea__eal__
A5  A/B    A/C#        A/D    E    E   E              (f# a f#) 
           Now_ deser__vingly___   this easy_ chair__
A5  A/B       A/C#     A/D          E   E   E 
     But_ the rock_ing starts__ the wheels of this play___y___ay
[Pre-Chorus2] (Riff2)
      A5         A/B                A/C#    A/D 
Don't want_ your hate_      But the fist_ I make_
E (d5  e5          f#5   g#5    a5)
For YOU___ still no fear___
     A5     A/B         A/C#      A/D 
No_! not on me_      So please ex_cuse__ me while
E (d5  e5          f#5   g#5    a5)
I tell them how I feel___
Riff3 (Chorus)
|-----------------------|-------------------------|
|-----------------------|-------------------------|
|-----------------------|-------------------------|
|--4--4----4----4----4--|----4----4---------------|
|--4--4----4----4----4--|----4----4----4-4-4--4-4-|
|--2--2----2----2----2--|----2----2----0-2-3--0-2-|
   F#5                                 E F# G E F#
[Chorus1] (Riff3 - Heavy part)
F#5
F#5                                       F#5
    But now the dreams end                     They everlast the night_
                      (And now the dreams end)
F#5                                       F#5
   So build a wall                           And hide until it's light_
                  (Behind it crawl)
F#5
   So can you hear your ba_bies_ cry_ing now_?
[Solo]
A5  A/B  A/C#  A/D  E   E   E   (f# a f#)
A5  A/B  A/C#  A/D  E   E   E
Solo
|----------------------5------|-----------------------5/-10--|
|--7--5-5-7--5-7--7-5-----7-7-|--7-7-5--7-7-5-7--7-5---------|
|-----------------------------|------------------------------|
|-----------------------------|------------------------------|
|-----------------------------|------------------------------|
|-----------------------------|------------------------------|
|--10--10-10-10--9-9-9--9-9-9-7---|--7----------------|
|---------------------------------|-------------------|
|---------------------------------|-------------------|
|---------------------------------|-------------------|
|---------------------------------|-------------------|
|---------------------------------|-------------------|
|---------------------5------|-----------------------5/-12--|
|--7--5--7--5-7--7-5-----7-7-|--7-7-5--7-7-5-7--7-5---------|
|----------------------------|------------------------------|
|----------------------------|------------------------------|
|----------------------------|------------------------------|
|----------------------------|------------------------------|
|--12--12-12-12--10-10-10-12---12-14---|--14-16-16-16-16-16-16-16-16-16-16-16-17--17--|
|--------------------------------------|----------------------------------------------|
|--------------------------------------|--------------------------------------14--14--|
|--------------------------------------|----------------------------------------------|
|--------------------------------------|----------------------------------------------|
|--------------------------------------|----------------------------------------------|
[Pre-Chorus1] (Riff2)
           A5       A/B                A/C#      A/D 
Still_ the win_dow_ burns__    Time so slow_ly_  turns__
                                                 (burns__)
 E (d5  e5                   f#5   g#5    a5)
 And someone there is sigh__ing_
(and someone there is sigh__ing_)
        A5     A/B               A/C#       A/D 
Keepers of the flames_    Do you feel_ your name_?
E  (d5  e5                  f#5   g#5    a5)
Did you hear_ your ba_bies_ cry_ing______?
[Chorus2] (Riff3 - Heavy part)
F#5                                       F#5
    But now the dreams end                     They everlast the night_
                      (And now the dreams end)
F#5                                       F#5
   So build a wall                           And hide until it's light_
                  (Behind it crawl)
F#5 
   So can you hear your ba_bies_ cry_ing now_?
Riff4 (Outro picking)
e-------------------------|-------------------------|-------------------------|-------------------------|
B-------------------------|-------------------------|-------------------------|-------------------------|
G-------------------------|-------------------------|-------------------------|-------------------------|
D--------4----------4-----|--------4----------4-----|--------4----------4-----|--------4----------4-----|
A-----4-----4----------4--|-----4-----4----------4--|-----4-----4----------4--|-----4-----4----------4--|
E--2-------------2--------|--4-------------4--------|--5-------------5--------|--7-------------7--------|
   F#5                      F#5/G#                     F#/A                      F#/B
F#5                F#5/G#         F#/A              F#/B
Oh_ they try__ and break_ me__    Oh they try__ and break__ me__
F#5                F#5/G#         F#/A           F#/B
Oh_ they try__ and break_ me__    Oh they try__  Oh they try__
F#5                F#5/G#         F#/A              F#/B
OH_ they TRY__ and break_ me__    Oh they try__ and BREAK__ me__
F#5                F#5/G#         F#/A           F#/B        (g f#) F#5
OH_ they try__ and BREAK_ ME__    Oh they try__  Oh trey try______y_______


Enviada por Sem inscrição
Nº de acordes: 14