• Violão
  • Guitarra
  • Teclado
  • Cavaquinho
  • Contra-baixo
  • Bateria
  • Gaita
  • Guitar Pro
It starts with the main riff he plays through the whole song.

e/------1-----1---------------------------------------|
b/----1-----0------5-----3-----5-----3-----1----------|
g/--2-----2------4-----2-----4-----2-----0------------|
d/-------------5-----3-----5-----5-----2-----2-3-5----|
A/----------------------------------------------------|
E/----------------------------------------------------|

The chorus is played in chords and goes like this. The chorus is played in this order: 
Patern 1 - Patern 2 - Patern 1 - Patern 3

Patern 1
e/---1-1-1-1---3-3-3-3---0-0-0-0---0-0-0-0--------------------|
b/---3-3-3-3---3-3-3-3---0-0-0-0---1-1-1-1--------------------|
g/---2-2-2-2---0-0-0-0---0-0-0-0---2-2-2-2--------------------|
d/---0-0-0-0---0-0-0-0---2-2-2-2---2-2-2-2--------------------|
A/-------------2-2-2-2---2-2-2-2---0-0-0-0--------------------|
E/-------------3-3-3-3---0-0-0-0------------------------------|

Patern 2
e/---1-1-1-1---3-3-3-3----------------------------------------|
b/---3-3-3-3---3-3-3-3---1-1-1-1---1-1-1-1--------------------|
g/---2-2-2-2---0-0-0-0---0-0-0-0---2-2-2-2--------------------|
d/---0-0-0-0---0-0-0-0---2-2-2-2---2-2-2-2--------------------|
A/-------------2-2-2-2---3-3-3-3---0-0-0-0--------------------|
E/-------------3-3-3-3----------------------------------------|


Enviada por Sem inscrição
Nº de acordes: 0