London Grammar

Darling Are You Gonna Leave M E

London Grammar

13 exibições
  • Violão
  • Guitarra
  • Teclado
  • Cavaquinho
  • Contra-baixo
  • Bateria
  • Gaita
  • Guitar Pro
Standard Tuning



Intro + Verse :

( The hammer is played only during live version )

e --------------------------------------------|
B ------------------------10-----5----3-------|
G ------------9---7h9-----11-----6----4-------|
D ----12----------9-------12-----7----5-------|
A -10----10-9-------------12-----7----5-------|
E ---------------------10------5----3---------|


Chorus :

Almost the same

e --------------------------------------------|
B ------------5-----3--------------5-----3----|
G ------------6-----4--------------6-----4----|
D ----12------7-----5--------------7-----5----|
A -10---------7-----5--------------7-----5----|
E ---------5------3---------------5----3------|


I think it's all

Thanks for watching


Enviada por Sem inscrição
Nº de acordes: 0