Local Natives

Wide Eyes

Local Natives

43 exibições
  • Violão
  • Guitarra
  • Teclado
  • Cavaquinho
  • Contra-baixo
  • Bateria
  • Gaita
  • Guitar Pro
Tabbed by: Jason Paszek (Autopoietic Boy)


Tuning: Standard (EADGBe)

Intro and Verse 

e|-----2-----2--------------2-----2------2------2------2---------------------|
B|-------3-----3-----3--------3-----3------3------3------2-------------------|
G|--0------4-----------2--------------4-------------2------------------------|
D|-----------------0-----0------2-------------4------------------------------|
A|---------------------------------------------------------------------------|
E|---------------------------------------------------------------------------|

Gtr. 2 over Intro

e|--5/7----------------------------------------------------------------------|
B|-------7/10----------------------------------------------------------------|
G|------------7/11--7------------------------------------------------------|
D|---------------------------------------------------------------------------|
A|---------------------------------------------------------------------------|
E|---------------------------------------------------------------------------|

Bridge

e|---------------------------------------------------------------------------|
B|--3-------4-------3------4-------------------------------------------------|
G|---------------------------------------------------------------------------|
D|--2-------4-------2------4-------------------------------------------------|
A|--0-------2-------0------2-------------------------------------------------|
E|---------------------------------------------------------------------------|

Gtr. 2 played over bridge        A4   B

e|-------------------------------2-2-2-2-5-5-5-5-----------------------------|
B|--------------------------------5-5-5-5-7-7-7-7----------------------------|
G|---------------------------------------------------------------------------|
D|---------------------------------------------------------------------------|
A|---------------------------------------------------------------------------|
E|---------------------------------------------------------------------------|

e|---------------------------------------------------------------------------|
B|--8--8--8-8-8-10-5--5--5-5-5-----------------------------------------------|
G|--x--x--x-x-x-x--x--x--x-x-x-4--4--4-4--4--7--6--6--6-6--6--(b9)-------------|
D|--5--5--5-5-5-7--2--2--2-2-2-x--x--x-x--x--x--x--x--x-x--x--x--------------|
A|-----------------------------2--2--2-2--2--5--4--4--4-4--4--7--------------|
E|---------------------------------------------------------------------------|


Enviada por Sem inscrição
Nº de acordes: 0