Kiss

Do You Love Me

Kiss

85 exibições
Rhythm Fig. 1
                                      end 1.
Eb|----------------------------------|-----------------|
Bb|----------------------------------|-----------------|
Gb|--9------9-9------9-9-7~--9-9-----|-----------------|
Db|--7--9---7-7--9---7-7-7~--7-7--9--|--7-/11-11-------|
Ab|--0--7---0-0--7---0-0-5~--0-0--7--|--9-/9--9--------|
Eb|-----0--------0----------------0--|--0--------------|

Rhythm Fig. 2

Eb|----------------------------------------------------|
Bb|----------------------------------------------------|
Gb|----4-4--5-4-5-4-4-----4-4--5-4------2--3-2-3-2-----|
Db|-4--4-4--4-4-6-4-4--4--4-4--4-4------2--2-2-2-2-----|
Ab|-4--2-2--6-4-7-4-4--4--2-2--6-4------0--4-0-4-0-----|
Eb|-2------------------2-------------------------------|

Eb|----------------------------------------------------|
Bb|----------------------------------------------------|
Gb|----4-4--5-4-5-4-4-----4-4--5-4-5-4-----------------|
Db|----4-4--4-4-6-4-4--4--4-4--4-4-4-4-----------------|
Ab|----2-2--6-4-7-4-4--4--2-2--6-4-6-4-----------------|
Eb|--------------------2-------------------------------|

Riff 1. (Both Guitars)

Eb|----------------------------------------------------|
Bb|----------------------------------------------------|
Gb|--8~-6~-4~-6~-/8~-6~--8~-6~-4~-6~-/8~-9~------------|
Db|----------------------------------------------------|
Ab|----------------------------------------------------|
Eb|----------------------------------------------------|
     

Riff 1a.

Eb|----------------------------------------------------|
Bb|----------------------------------------------------|
Gb|--10~-8~-6~-8~-/10~-8~--10~-8~-6~-8~----------------|
Db|--------------------------------------4-4-----------|
Ab|--------------------------------------4-4-----------|
Eb|--------------------------------------2-2-----------|


Riff 1b.

Eb|----------------------------------------------------|
Bb|----------------------------------------------------|
Gb|--6---------------------6---------------------------|
Db|--6---------------------6-------------4-4-----------|
Ab|--4---------------------4-------------4-4-----------|
Eb|--------------------------------------2-2-----------|

 
Riff 2.

Eb|----------------------------------------------------|
Bb|--17--16--14--12---15--14--12--10----17--16--14--12-|
Gb|----------------------------------------------------|
Db|--17--17--14--13---15--15--12--12----17--17--14--13-|
Ab|----------------------------------------------------|
Eb|----------------------------------------------------|
     


Enviada por Sem inscrição
Nº de acordes: 0