Kiss

All American Man

Kiss

11 exibições
Rhythm Fig. 1

Eb|----------------------------------------------------|
Bb|----------------------------------------------------|
Gb|--2-2-------5\4--/2--\5--\7--2-2-------5\4--/2--\7--|
Db|--2-2-------5\4--/2--\5--\7--2-2-------5\4--/2--\7--|
Ab|--0-0-0-0-0------------------0-0-0-0-0--------------|
Eb|----------------------------------------------------|


Rhythm Fig. 1a

Eb|----------------------------------------------------|
Bb|------------------3------------------------3--------|
Gb|---------------2--2---2----------------2---2--------|
Db|---------------2--0---2----------------2---0--------|
Ab|---------------0------0----------------0------------|
Eb|-0h^3p^0h^3b^-------------0h^3p^0h^3b^--------------|


Rhythm Fig. 1b


Eb|----------------------------------------------------|
Bb|---------3----------------3-------------------------|
Gb|---2-----2----------2-----2-------------------------|
Db|---2-----0----------2-----0-------------------------|
Ab|---0----------------0-------------------------------|
Eb|----------------------------------------------------|


Rhythm Fig. 1c

Eb|----------------------------------------------------|
Bb|----------------------------------------------------|
Gb|--2-2-------5\4--/2--\5--\7--2-2-------5\4--/2--\7--|
Db|--2-2-------5\4--/2--\5--\7--2-2-------5\4--/2--\7--|
Ab|--0-0-0-0-0------------------0-0-0-0-0--------------|
Eb|----------------------------------------------------|

Eb|----------------------------------------------------|
Bb|----------------------------------------------------|
Gb|--2-2-------5\4--/2--\5--\7--2-2-------5\4--/2--\7--|
Db|--2-2-------5\4--/2--\5--\7--2-2-------5\4--/2--\7--|
Ab|--0-0-0-0-0------------------0-0-0-0-0----------\5--|
Eb|----------------------------------------------------|

Eb|----------------------------------------------------|
Bb|----------------------------------------------------|
Gb|-----------------------------2-2-------5\4--/2--\7--|
Db|-----------------------------2-2-------5\4--/2--\7--|
Ab|----\-\-\-\-\-\--------------0-0-0-0-0----------\5--|
Eb|----\-\-\-\-\-\-------------------------------------|
       Pick Scrape

Eb|----------------------------------------------------|
Bb|----------------------------------------------------|
Gb|--2-2-------5\4--/2--\5--\7--2-2-----------2--------|
Db|--2-2-------5\4--/2--\5--\7--2-2-----------2--------|
Ab|--0-0-0-0-0------------------0-0-----------0--------|
Eb|----------------------------------------------------|


Rhythm Fig. 2

Eb|----------------------------------------------------|
Bb|----------------------------------------------------|
Gb|-----9--------------7---5-5-5-5---------------------|
Db|-2---9--------------7---5-5-5-5-5-------------------|
Ab|-2---7--------------5---3-0-3-0-5-------------------|
Eb|-0-------h^3-0h^5---------------3-------------------|
    

Rhythm Fig. 2a


Eb|----------------------------------------------------|
Bb|--------------------3-------------------------------|
Gb|-----9--------------2-------------------------------|
Db|-----9--------------0-------------------------------|
Ab|-----7------------------3-0-3-0---------------------|
Eb|-0-------h^3-0h^5---------------3-------------------|
    

Rhythm Fig. 3


Eb|----------------------------------------------------|
Bb|--------------------3-------------------------------|
Gb|-----4--------------2-------------------------------|
Db|-----4--------------0-------------------------------|
Ab|-----2------------------3-0-3-0---------------------|
Eb|--------------------------------3-------------------|
      


Riff. 1

Eb|----17----------------20b-20~~---17-----------------|
Bb|----20b~--20b-r20p^17------------20b~-20b-r20p^17---|
Gb|----------------------------------------------------|
Db|----------------------------------------------------|
Ab|----------------------------------------------------|
Eb|----------------------------------------------------|


Eb|--------17----------------20b-20~~-17---------------|
Bb|--17----20b~-20b-r20p^17------------20b~-20b-r20-17-|
Gb|--19b~----------------------------------------------|
Db|----------------------------------------------------|
Ab|----------------------------------------------------|
Eb|----------------------------------------------------|


Eb|-20b~~----------------------------------------------|
Bb|----------------------------------------------------|
Gb|----------------------------------------------------|
Db|----------------------------------------------------|
Ab|----------------------------------------------------|
Eb|----------------------------------------------------|


Riff. 2

Eb|----17----------------20b-20~~---17-----------------|
Bb|----20b~--20b-r20p^17------------20b~-20b-r20p^17---|
Gb|----------------------------------------------------|
Db|----------------------------------------------------|
Ab|----------------------------------------------------|
Eb|----------------------------------------------------|


Eb|--------17----------------20b-20~~--17--------------|
Bb|--17----20b~-20b-r20p^17------------20b~-20b-r20-17-|
Gb|--19b~----------------------------------------------|
Db|----------------------------------------------------|
Ab|----------------------------------------------------|
Eb|----------------------------------------------------|


Eb|------------17--------------------------------------|
Bb|--17--------17--20--20b--r20p^17----20b~~-----------|
Gb|--19b~--19b----------------------19-----------------|
Db|----------------------------------------------------|
Ab|----------------------------------------------------|
Eb|----------------------------------------------------|

Solo.

Eb|----------------------------------------------------|
Bb|--17(20)--------------------------------------------|
Gb|-----------2(0)-------------------------------------|
Db|------------------------------17b~~-----------------|
Ab|----------------------------------------------------|
Eb|----------------------------------------------------|


Eb|--------------20p^17----------20b-------------------|
Bb|--17h^20p^17---------20p^17-------------------------|
Gb|----------------------------------------------------|
Db|----------------------------------------------------|
Ab|----------------------------------------------------|
Eb|----------------------------------------------------|
                 


Eb|-----------------20b--20b~--------------------------|
Bb|-20p^17---------------------------------------------|
Gb|--------19p^17--------------------------------------|
Db|----------------------------------------------------|
Ab|----------------------------------------------------|
Eb|----------------------------------------------------|
    


Enviada por Sem inscrição
Nº de acordes: 0