John Mayer

Everyday I Have The Blues

John Mayer

327 exibições
  • Violão
  • Guitarra
  • Teclado
  • Cavaquinho
  • Contra-baixo
  • Bateria
  • Gaita
  • Guitar Pro
__Main Riff__

----------------x-----------------------------x---------------------------x-|
----------------x-----------------------------x---------------------------x-|
---7-----8------x------------------8---8------x----------------8----10v---8-|
---8-----9------x--------8---10----7---7------x-------8---10----------------|
---7-----8------8---11-------------8---8------8---11------------------------|
---8-----9------------------------------------------------------------------|




--------------------|
--------------------|
--------------------|
---10---8-----------|
--------------11----|
--------------------|


Enviada por Sem inscrição
Nº de acordes: 0