John Lee Hooker

Boom Boom Boom

John Lee Hooker

106 exibições
  • Violão
  • Guitarra
  • Teclado
  • Cavaquinho
  • Contra-baixo
  • Bateria
  • Gaita
  • Guitar Pro
Intro: 

e|----------------------------------------|----------------------------------|
B|-------3--------------------------------|----------------------------------|
G|--2h4-----4p2p0---2---0----2------------|---1----0---2b(1/4)p0-1-----------|
D|----------------------------------------|---2----0---2b(1/4)p0-2-----------|
A|----------------------------------------|---2------------------2-----------|
E|----------------------------------------|----------------------------------|

e|----------------------------------------|----------------------------------|
B|----------------------------------------|----------------------------------|
G|--0h2--3b(1/4)2----0--------------------|--1----0---2b(1/4)p0-1------------|
D|-----------------------2--0--2----------|--2----0---2b(1/4)p0-2------------|
A|----------------------------------------|--2------------------2------------|
E|----------------------------------------|----------------------------------|

e|----------------------------------------|----------------------------------|
B|--3b(1/4)--4---2---0--------------------|----------------------------------|
G|----------------------2--0---2----------|----------------------------------|
D|----------------------------------------|---2----2---2---2----2------------|
A|----------------------------------------|---0----3---5---3----0------------|
E|----------------------------------------|----------------------------------|

e|----------------------------------------|----------------------------------|
B|----------------------------------------|----------------------------------|
G|----0--2h3p2--0-------------------------|--1----0---2b(1/4)p0-1------------|
D|--2----------------2--0--2--------------|--2----0---2b(1/4)p0-2------------|
A|----------------------------------------|--2------------------2------------|
E|----------------------------------------|----------------------------------|

e|----------------------------------------|----------------------------------|
B|-------3--5-----------------------------|----------------------------------|
G|--2/4--------4\2p0----------------------|---1----0---2b(1/4)p0-1-----------|
D|---------------------2---0--2-----------|---2----0---2b(1/4)p0-2-----------|
A|----------------------------------------|---2------------------2-----------|
E|----------------------------------------|----------------------------------|

e|----------------------------------------|----------------------------------|
B|----------------------------------------|----------------------------------|
G|--0h2--3b(1/4)2----0--------------------|--1----0---2b(1/4)p0-1------------|
D|-----------------------2--0--2----------|--2----0---2b(1/4)p0-2------------|
A|----------------------------------------|--2------------------2------------|
E|----------------------------------------|----------------------------------|


e|----------------------------------------|----------------------------------|
B|--3b(1/4)--4---2---0---2--0---2---------|----------------------------------|
G|----------------------------------------|----------------------------------|
D|----------------------------------------|---2----2---2---2----2------------|
A|----------------------------------------|---0----3---5---3----0------------|
E|----------------------------------------|----------------------------------|

e|----------------------------------------|----------------------------------|
B|-----------3----------------------------|----------------------------------|
G|--0h2h4--------4p2p0---2---0----2-------|---1----0---2b(1/4)p0-1-----------|
D|----------------------------------------|---2----0---2b(1/4)p0-2-----------|
A|----------------------------------------|---2------------------2-----------|
E|----------------------------------------|----------------------------------|


VERSE:


     Boom, Boom , Boom, Boom.
e|----------------------------------------|----------------------------------|
B|----------------------------------------|----------------------------------|
G|----------------------------------------|---0h1---0h2--0--2(1/4)p0--1------|
D|----------------------------------------|---0h2---0h2--0--2(1/4)p0--2------|
A|----------------------------------------|---0h2---------------------2------|
E|----------------------------------------|----------------------------------|


    Gonna shoot you right down
e|----------------------------------------|----------------------------------|
B|----------------------------------------|----------------------------------|
G|----------------------------------------|---0h1---0h2--0--2(1/4)p0--1------|
D|----------------------------------------|---0h2---0h2--0--2(1/4)p0--2------|
A|----------------------------------------|---0h2---------------------2------|
E|----------------------------------------|----------------------------------|


    Right off-a ya feet
e|----------------------------------------|----------------------------------|
B|----------------------------------------|----------------------------------|
G|----------------------------------------|---0h1---0h2--0--2(1/4)p0--1------|
D|----------------------------------------|---0h2---0h2--0--2(1/4)p0--2------|
A|----------------------------------------|---0h2---------------------2------|
E|----------------------------------------|----------------------------------|

   Take you home with me
e|----------------------------------------|----------------------------------|
B|----------------------------------------|----------------------------------|
G|----------------------------------------|---0h1---0h2--0--2(1/4)p0--1------|
D|----------------------------------------|---0h2---0h2--0--2(1/4)p0--2------|
A|----------------------------------------|---0h2---------------------2------|
E|----------------------------------------|----------------------------------|


   Put you in my house
e|----------------------------------------|----------------------------------|
B|----------------------------------------|----------------------------------|
G|----------------------------------------|----------------------------------|
D|----------------------------------------|---0h2---2--2--2--2--2---2--------|
A|----------------------------------------|---0-----3--5--3--5--3---0--------|
E|----------------------------------------|----------------------------------|


  Boom, Boom , Boom, Boom
e|----------------------------------------|----------------------------------|
B|----------------------------------------|----------------------------------|
G|----------------------------------------|---0h1---0h2--0--2(1/4)p0--1------|
D|----------------------------------------|---0h2---0h2--0--2(1/4)p0--2------|
A|----------------------------------------|---0h2---------------------2------|
E|----------------------------------------|----------------------------------|


Enviada por Sem inscrição
Nº de acordes: 0