Joe Bonamassa

The Ballad Of John Henry

Joe Bonamassa

379 exibições
  • Violão
  • Guitarra
  • Teclado
  • Cavaquinho
  • Contra-baixo
  • Bateria
  • Gaita
  • Guitar Pro
Tuning (B A D G B e)

(Guitar 1 - Electric)
Intro                D5                        E5
|-----|------------------------------------------|
|-----|--------------3----------------------3--5-|
|-----|--------------2----------------------2--4-|   Repeat x6
|-----|--------------0----------------------0--2-|
|-----|-----2-0-2----0--2-0-2~---2-0-2~-0---0--2-|
|-/5--|---0-------0------------0---------0-------|

(Guitar 2 - Acoustic: slid notes are with a metal slider)
Verse - Best finger picked =]
|----------------------|           |------|
|---3-------3-------3--|           |------|
|-----4-------4-------4| repeat x3 |--2/4-| Slide slowly, listen out for
|----------------------|           |------| whenever Joe slides this note.
|-2-----2-------2------|           |------|
|----------------------|           |------|

(Guitar 1 - Electric)
Chorus
|------------------------------------------|
|--------------3----------------------3--5-|
|--------------2----------------------2--4-|   Play until chorus finishes.
|--------------0----------------------0--2-|
|-----2-0-2----0--2-0-2~---2-0-2~-0---0--2-|
|---0-------0------------0---------0-------|


Bridge
(Guitar 1 - Electric)
  F#5
|-------------------------------------------------|
|-------------------------------------------------|
|-11-11-11-11-11-11--12---11/12-11--9-9-9-9-9-9-9-| repeat x5
|-11-11-11-11-11-11--12---11/12-11--9-9-9-9-9-9-9-|
|--9--9--9--9--9--9--10----9/10--9--7-7-7-7-7-7-7-|
|-------------------------------------------------|

                   Metal Slider
|------------------------------------------------------------|
|------------------------------------------------------------|
|------------------------------------------------------------| Then there's
|------------------------------------------------------------| the solo.
|------------------10/12~-2*----------------10/12------------|
|-/0---------x-x-x-----------0-0-0-0-0-0--x--------x-x-x-x-x-|

Outro
(Guitar 1 - Electric)
|------|
|------|
|------| Repeat.
|------|
|--0---|
|---3b-|


Enviada por Sem inscrição
Nº de acordes: 7