Guns N`Roses

Don't Cry

Guns N`Roses

7.619 exibições
Intro:  Clean Electric

   C6   Am            Dm            G              Em/C  

e|-------------0-------------1---------------3-------------------------
B|---------------1---------3---3---------------3-----------------------
G|-----------2-----2-----2-------2---------0-----0------0-----0--------
D|---------2---------2-0-----------------0------------2-----0----------
A|-------0-------------------------0---2------------3-----2-----3-2-0--
E|--3--------------------------------3---------------------------------


   Am      Dm            G

e|--0-------------1-------------------------
B|----1---------3---3-----------------------
G|------2-----2-------2---------------------
D|--------2-0-----------------0-------------
A|----------------------0---2--------0------
E|------------------------3------3-4--------


Verso: Clean Electric

   Am         Dm        G         Em/C

e|-----0---------1----------3-------------------
B|-------1-----3---3----------3-----------------        
G|--2------2---2-----2----------0--0--0--0-0-0--   ______/Qautro vezes esse\  
D|--2--------0-0---------0---------2--0--0-0-0--         \    dedilhado    /
A|--0------------------0-2---------3--2--3-2-0--
E|-----------------------3----------------------
   
      Talk to me softly   There...your eyes 


* Last time before 2nd and 3rd chorus replace
  remainder of Rhy. Fig. 1 with Rhy. Fill 1.

 Rhy. Fill 1          End Rhy. Fill 1
  C       G/B     Am      G
|----------------------------------|
|-------1-------3-------1----------|
|-----0-------0-------2---------0--|
|---2-------0-------2---------0----|
|-3-------2-------0---------2------|
|-------------------------3--------|

 (w/Rhy. Fig. 1)
 Talk to me softly
 There's something in your eyes
 Don't hang your head in sorrow
 And please don't cry
 I know how you feel inside I've
 I've been there before
 Somethin's changin' inside you
 And Don't you know

Chorus: Clean Electric
   F                    G           Am
|--------------------------------|------------------0--|--------------------|
|--1-------1-----1----------3-3--|--------0-h-1--------|--1-----0-h-1-------|
|--0-h-2---0-h-2-0-h-2------0-0--|------2-------2------|----2---------2-p-0-|
|--3-------3-----3--------0------|----2-----------2----|------2-------------|
|--------------------------------|--0------------------|--------------------|
|-----------------------3--------|---------------------|--------------------|


   F           G           Am                            F           G
|--------1-------------|------------0--0-------------|------1-----------3---|
|------1---1-------3---|------0----------3--3-1------|----1---1-----3-3---3-|
|----2-------2---0-----|----2-----2-------------2----|--2-------2---0-------|
|--3-----------0-----0-|--------2-----------------2--|--3-----------0-------|
|----------------------|--0--------------------------|----------------------|
|----------------------|-----------------------------|----------------------|

   C**     G/B     Am      G           F        G           Am
|-----------------------------------|------1--------3----|--0-------|
|--------1-------1-------1----------|----1---1--3-3---3--|--1-------|
|------0-------0-------2---------0--|--2--------0--------|--2----2--|
|----2-------0-------2---------0----|--3--------0--------|--2--2----|
|--3-------2-------0---------2------|--------------------|--0-------|
|--------------------------3--------|--------------------|----------|

Repeat Verse w/Additional Lyrics: Verse: 2
Repeat Chorus w/Rhy. Fill 2 at **

Rhy. Fill 2                  End Rhy. Fill 2
  C5   G5      A5   G5      F5   G5   A5
|-----------|------------|-----------------|
|-----------|------------|-----------------|
|--5--------|------------|-----------------|
|--5----5---|---7----5---|---3----5----7---|
|--3----5---|---7----5---|---3----5----7---|
|-------3---|---5----3---|---1----3----5---|

Chord progression over the Solo:
 D5      F5      | G5      A5 G5    | F5      G5      | A5            G5|
 / . / . / . / . | / . / . / . / . | / . / . / . / . | / . / . / . / . |

 F5      G5      | E5      F5      | F5      G5      | A5
 / . / . / . / . | / . / . / . / . | / . / . / . / . | /...............|

 Solo:
|---------------------------------------------------------------------|
|---------------------------------------8~~-----------8-8-------------|
|------------7^rp5--7-(7)~~~--r7p5--7^-------r7p5--7^-----r7----5^\/\-|
|-7~~~~~~~~~----------------------------------------------------------|
|---------------------------------------------------------------------|
|---------------------------------------------------------------------|

|---------------------------------------------------------------------|
|-----------------------------------------13^(2 steps)--13^(1/4 step)-|
|-7/9-9/10--------------------------12h14-----------------------------|
|----------------------10h12-12/14------------------------------------|
|-5/7--7/8--8h10-10/12------------------------------------------------|
|---------------------------------------------------------------------|

|-------------------------------------------------------------------|
|-------------------------------------------------------------------|
|-14~~~--12---------------------------------------------------------|
|-----------14-13h14p13p12-13p12-10-12p10---------10^---------------|
|------------------------------------------12p10------12p10-12-(12)-|
|-------------------------------------------------------------------|

|-----15-15-15-------------15-15------------------------------------------|
|-15^----------r15p13--15^-------r15--13-12---------12/15-13-12-13--------|
|------------------------------------------------13-----------------14----|
|---------------------------------------------14-----------------------15-|
|-------------------------------------------------------------------------|
|-------------------------------------------------------------------------|

|-13-----------------------------5----------------------------------------------|
|----13--15^--15~~~--r15p13--8^-----8-5--------x-x--8---------------5^r^(5)r--5-|
|----------------------------------------r7p5--x-x--7^--(7)-----r7--------------|
|-------------------------------------------------------------------------------|
|-------------------------------------------------------------------------------|
|-------------------------------------------------------------------------------|

Verse:
                                                trem. bar
      Feedback---------------------------------------|  Harm
                                             \\\\\3.5   8va
|---------------------------------|---------------------------------|
|---------5-b-6---------r-5-b-6---|-------r-5-----------5-----------|
|-(7)-----------------------------|---------------------------------|
|---------------------------------|---------------------------------|
|---------------------------------|---------------------------------|
|---------------------------------|---------------------------------|
    and please remem-ber             that  I never  lied

Chorus 3: Lead Part

 Double regular chorus with power chords, or 5 (ie: F5, G5, A5, etc) 

F G Am                                                  F    G
|--12~~~--12--12--12--12-------|-------------------|------------|
|-------------------------13---|--15-p-13----------|------------|
|------------------------------|-----------14~~~~--|------------|
|------------------------------|-------------------|------------|
|------------------------------|-------------------|------------|
|------------------------------|-------------------|------------|

   Am                                    F      G
|--15b-------r15--15----------|-------------------|-------------|
|---------------------17--15--|--15--p--13~~~~~~--|--15--13--15-|
|-----------------------------|-------------------|-------------|
|-----------------------------|-------------------|-------------|
|-----------------------------|-------------------|-------------|
|-----------------------------|-------------------|-------------|

   C     G/B    Am     G          F
|------------------------------|------------------------------|
|--15----15-----12-----12------|------------------------------|
|------------------------------|--14~~~~~~--------------------|
|------------------------------|------------------------------|
|------------------------------|------------------------------|
|------------------------------|------------------------------|


Outro Chorus: Distorted Guitar

 F5            G5
 And don't you cry...

 F5             G5
 Don't you ever cry...

 F5        G5    ***     (E5) (F5)
 Don't you cry tonight... baby maybe someday...

 F5        G5
 Don't you cry...

 F5             G5
 Don't you ever cry...

 F5        G5     C5       
 Don't you cry... TONIGHT... ****


*** Fill in with Rhy. Fill 3

  Rhy. Fill 3                           End Rhy. Fill 3
    E5                         F5 
E|--------------------------|--------------------------|
B|--------------------------|--------------------------|
G|--------------------------|--------------------------|
D|--2--2--2--2--2--2--2--2--|--3--3--3--3--3--3--3--3--|
A|--2--2--2--2--2--2--2--2--|--3--3--3--3--3--3--3--3--|
E|--0--0--0--0--0--0--0--0--|--1--1--1--1--1--1--1--1--|
                baby...        maybe...    someday...

**** Play Riff 1

  Riff 1
E|-12--12--------------------------12--12----------13--------------|
B|---------13------13------13--------------13----------------sl----|
G|---------------------------------------------------------12-/14--|
D|-----------------------------------------------------------------|
A|-----------------------------------------------------------------|
E|-----------------------------------------------------------------|

E|-13--------------12----------10----------8-----------------------|
B|-----------------------------------------------------------------|
G|---------12--------------10----------9---------5h7-------5-------|
D|-----------------------------------------------------------------|
A|-----------------------------------------------------------------|
E|-----------------------------------------------------------------|

E|-----------------------------------------------------------------|
B|-----------------------------------------------------------------|
G|---------5-------------------------------------------------------|
D|-5-h-7-----------------------------------------------------------|
A|---------------6h7-----------------------------------------------|
E|-----------------------------------------------------------------| End Riff 1

  João Paulo Montagnini Pastana




Versão 2
--------
Essa tablatura foi tirada do show de Tóquio de 1992.

Essa cifra eu mandei especialmente para mostrar somente as coisas que o
SLASH faz,se vc escutar bem de fundo ele 
toca alguns acordes...



Essa parte vc toca o acorde com o volume da guitarra todo baixo e vai subindo
e deixa soar.. escute a música e trie que fica mais fácil...Porém é preciso acertar 
os tempos..
 
---------------------------------------------------------------------------------
----------------------------------------------------------------------------------
--2hb------2rb~~~~~~~~~~~~~~~~~~~~~~~~~~~~~~~~~~~~~~~~~~~~~~~~~~~~~~~~~~~---------
----------------------------------------------------------------------------------
----------------------------------------------------------------------------------
----------------------------------------------------------------------------------



Talk to me softly there's something in your eyes....    
-------------------------------------------------------------------------------
-------------------------------------------------------------------------------
---(2)----------------------------------(2)------------------------------------
-------------------------------------------------------------------------------
-------------------------------------------------------------------------------
-------------------------------------------------------------------------------


Don't hang your head in sorrow ...     and please don't cry
------0-----------------------------------0----------------------------------
--5-------------------------------------3---3--------------------------------
----5------------------------------------------------------------5--4--5-4---
-----------------------------------------------------------------------------
-----------------------------------------------------------------------------
-----------------------------------------------------------------------------


I know how you feel inside I've,    I've been there before
------0-----------------------------------0----------------------------------
--5-------------------------------------3---3--------------------------------
----5-------------------------------------------------------------5--4--5-4--
-----------------------------------------------------------------------------
-----------------------------------------------------------------------------
-----------------------------------------------------------------------------


Something's changing inside you      and don't you know
-3------0----0------3------0----0---------0-----------------------------------
---5-------5---5------5-------5---5-----3---3---------------------------------
-----5------------------5---------------------------------------------0-------
-------------------------------------------------------------------2----------
----------------------------------------------------------------3--------2--0-
------------------------------------------------------------------------------


Don't you  cry        tonight    I still love you baby....
----------------------------------------------------0--------------------------
------1--------------------3------------------0h1-----1-----0h1----------------
----2----2-----2---------0---0---0----------2-----2-----2-------2-0------------
--3---------3----------0-------0----------2---------------2--------------------
---------------------2------------------0--------------------------------------
-------------------------------------------------------------------------------


Don't you  cry        tonight
------------------------------------------------------------0------------------
------1--------------------3--------------------0h1---1-3/5---5\3-1-3p1--------
----2----2-----2---------0---0---0------------2-----2-------------------2------
--3---------3----------0-------0------------2----------------------------------
---------------------2--------------------0------------------------------------
-------------------------------------------------------------------------------



 And    Don't you  cry        tonight  There's a heaven above you baby,
------------------------------------------------------------------------------
------1--------------------3--------------------1-------1-------1-------------
----2----2-----2---------0---0---0------------0-------0-------2---------0-----
--3---------3----------0-------0------------2-------0-------2---------0-------
---------------------2--------------------3-------2-------0---------2---------
------------------------------------------------------------------3-----------



 
And     Don't you  cry        tonight
------------------------------------------------------0----------------------
------1--------------------3----------------------0h1------------------------
----2----2-----2---------0---0---0--------------2----------------------------
--3---------3----------0-------0--------------2------------------------------
---------------------2----------------------0--------------------------------
-----------------------------------------------------------------------------




        Give me a whisper,                      And give me a sigh
------0-----------------------------------0----------------------------------
--5-------------------------------------3---3--------------------------------
----5------------------------------------------------------------5--4--5-4---
-----------------------------------------------------------------------------
-----------------------------------------------------------------------------
-----------------------------------------------------------------------------




        Give me a kiss before you,            Tell me goodbye
-3------0----0------3------0----0---------0----------------------------------
---5-------5---5------5-------5---5-----3---3--------------------------------
-----5------------------5---------------------------------------5--4--5-4----
-----------------------------------------------------------------------------
-----------------------------------------------------------------------------
-----------------------------------------------------------------------------




        Don't you take it so hard now,     And please don't take it so bad
-3------0----0------3------0----0---------0----------------------------------
---5-------5---5------5-------5---5-----3---3--------------------------------
-----5------------------5---------------------------------------5--4--5-4----
-----------------------------------------------------------------------------
-----------------------------------------------------------------------------
-----------------------------------------------------------------------------




        I'll still be thinkin' of you,      And the times we had 
---3------------------3-----0--------------0-----------------------------------------------------
-5---5------------------5-----5----------3---3-------------------------1-------1-------1---------
--------------------------5------------------------------------------0-------0-------2---------0-
-------------------------------------------------------------------2-------0-------2---------0---
-----------------------------------------------------------------3-------2-------0---------2-----
-----------------------------------------------------------------------------------------3-------




  And   Don't you cry         Tonight_________________________
----------------------------------------------------0--------------------------
------1--------------------3------------------0h1-----1-----0h1----------------
----2----2-----2---------0---0---0----------2-----2-----2-------2-0------------
--3---------3----------0-------0----------2---------------2--------------------
---------------------2---------------------------------------------------------
-------------------------------------------------------------------------------





        Don't you  cry        tonight
-------------------------------------------------------------3-------------------
------1--------------------3--------------------0h1---1--3/5---5--3--5--3--3p1---
----2----2-----2---------0---0---0------------2-----2--------------------------2-
--3---------3----------0-------0------------2------------------------------------
---------------------2--------------------0--------------------------------------
---------------------------------------------------------------------------------





                                             
And     Don't you  cry        tonight     C  G  A   F  G   A
-----------------------------------------------------------------------------------------
------1--------------------3-------------------------------------------------------------
----2----2-----2---------0--0---0---------5-----------------------------------------------
--3---------3----------0------0-----------5--5--7---3--5---7------------------7~~~~~~~~~~--
---------------------2--------------------3--5--7---3--5---7-------------------------------
---------------------------------------------3--5---1--3---5-------------------------------


Solo:

-------------------------------------------------------------------------------------------------
----------------------8-----------8---8----------------------------------------------------------
-7b-7p5-7~~--7p5---7b---7p5---7hb---7---7rb-5-------------7/9-9/10-10/12-------------------12h14-
------------------7----------7-----------------7--5-----------------------------10h12-12/14-------
----------------------------------------------------7\5-3--5/7-7/8--8/10--10/12-------------------
--------------------------------------------------------------------------------------------------




-----------------------------------------------------------------------15----15--------------
-13b-13-----------------------------------------------------------15hb----15----15rb--15-13--
--------14--12-------------------------------------------------------------------------------
----------------14-13h14p13p12-13p12-10-12p10-------10b--------------------------------------
----------------------------------------------12p10-----12p10-12~----------------------------
---------------------------------------------------------------------------------------------





------15----15----------------------------------------13-------------------------5--------------
-15hb----15----15rb-13-12-------12-15-13-12--13----------13--15b-15~--15b-13--8b---8-5----------
-----------------------------13-----------------14-------------------------------------7b-5-7b--
--------------------------14-----------------------15-------------------------------------------
------------------------------------------------------------------------------------------------
------------------------------------------------------------------------------------------------




        And please remember                     that i never lied
----------------------------------------------------------------------------------
----------------------------------------------------------------------------------
--7~-------------------------5h7-7b------7p5--------------------------------------
---------------------------------------------7------------------------------------
----------------------------------------------------------------------------------
----------------------------------------------------------------------------------




        And please remember                     how I felt inside now honey
----------1--------------------3------------------------------------------------------
-------3-----3--------------------3------------------------------------------0h1--1---
----2-----------2-----------0--------0------------0--------0--------------2-----------
-0-----------------------0---------------------2--------0--------------2--------------
-------------------0--------------------0---3--------2--------3--2--0-----------------
----------------------3---------------------------------------------------------------
 repita essa parte 2 vezes



You've gotta make it your own way, but you'll be alright now sugar



You'll feel better tomorrow


C5     G     A5     G5    F5    
With the morning light now baby


               G5
And Don't you cry tonight




                                                                Don't you cry tonight
----------------------------------------------------------------------------------
-15b--15b--15b--15b--15b--15b--15b--15b--15b---13------15--13---------------------
---------------------------------------------------14----------14~~---------------
----------------------------------------------------------------------------------
----------------------------------------------------------------------------------
----------------------------------------------------------------------------------




                                                Don't you cry tonight
--15b--15~--15b--15--12---------------------------------------------15------------
-------------------------15b-----15p13--15b--13~----15p13------15hb----15~--------
-----------------------------------------------------------14---------------------
----------------------------------------------------------------------------------
----------------------------------------------------------------------------------
----------------------------------------------------------------------------------




        There's a heaven above you baby         Don't you cry
----------------------------------------------------------------------------------
-15--13--15b--15~--13--12b--(12)--10~~~-------------------------------------------
----------------------------------------------------------------------------------
----------------------------------------------------------------------------------
-----------------------------------------------------------5----------------------
-----------------------------------------------------------3----------------------





   Don't you ever cry - y - y    -    y           Don't you cry tonight
----------------------------------------------------------------------------------
----------------------------------------------------------------------------------
----------------------------------------------------------------------------------
----------------------------------------------------------------------------------
-3-----------------5----------------------3---------------------5-----------------
-1-----------------3----------------------1---------------------3-----------------





        Baby,        maybe,        someday
-------------------------------------------------------------------------------------
-------------------------------------------------------------------------------------
---------------------------------------------------10----10/12-----12/14-----12/14---
--2--2--2--2--2--2--2--2----------------------------x-----x---------x---------x------
--2--2--2--2--2--2--2--2--3--3--3--3--3--3--3--3----8-----8/10-----10/12-----10/12---
--0--0--0--0--0--0--0--0--1--1--1--1--1--1--1--1-------------------------------------

essa parte ele faz no finalzinho da música



                                                                       
       tonight....yeayyeyae..                                          
             
--------------------------------------------------------------------------------------------------
--------------------------------------------------------------------------------------------------
-14/16---16---14---16---17----14---12----9\7---5---5--10-9--10-9--14--12---10\9--10\9--12--------
--x--------x----x----x----x-------x----x-----x\x---x---x---x-----x-----x---x----x-x---x-x---x---10
-12/14---14---12---14---15----12---10----7\5---3---3---8\7---8\7--12--10----8\7---8\7--10-----x--
------------------------------------------------------------------------------------------------8


Enviada por Sem inscrição
Nº de acordes: 15