Green Day

Troublemaker

Green Day

69 exibições
  • Violão
  • Guitarra
  • Teclado
  • Cavaquinho
  • Contra-baixo
  • Bateria
  • Gaita
  • Guitar Pro
Intro: Verso 1:           Refrão:
        |10x*************| 
|---xxx------|------------|------------|------------|
|---xxx------|------------|------------|------------|
|---xxx------|-899-----7--|------------|------------|
|(9)xxx-77899|-899-677-77-|724~-7724~-7|724~-7724~--|
|(9)xxx-77899|-677-677-57-|724~-7724~-7|724~-7724~--|
|(7)xxx-55677|-----455--5-|502~-5502~-5|502~-5502~--|

 Verso 2:           Refrão:
  |8x**************|
|------------|------------|------------|------------|
|------------|------------|------------|------------|
|-------899--|---7--------|------------|------------|
|-77899-899-6|77-77-724~-7|724~-7724~-7|724~--------|
|-77899-677-6|77-57-724~-7|724~-7724~-7|724~--------|
|-55677-----4|55--5-502~-5|502~-5502~-5|502~--------|

 Solo:
|------------|------------|------------|---------14-|
|------------|------------|------------|-------14---|
|-/8~-9~9/11~|-13~13/14~--|14b\8~-13h14|--14-16-----|
|------------|------------|------------|16----------|
|------------|------------|------------|------------|
|------------|------------|------------|------------|

|-12-13b13b13|b~-13b12----|------------|---14-------|
|------------|--------14--|----------14|14~--14-12--|
|------------|----------16|14h16p14----|----------14|
|------------|------------|--------16--|------------|
|------------|------------|------------|------------|
|------------|------------|------------|------------|

|------------|------------|------------|------------|
|14h17p14----|14h17p14----|14h17p14----|14h17p14----|
|--------1717|--------1717|--------1717|--------1717|
|------------|------------|------------|------------|
|------------|------------|------------|------------|
|------------|------------|------------|------------|

|------------|------------|------------|------------|
|14h17p14----|14---10~----|------------|------------|
|--------1717|--17-12b~---|------------|------------|
|------------|------------|------------|------------|
|------------|------------|------------|------------|
|------------|------------|------------|------------|

 Ponte: 
|-----x-----x|-----x------|------------|------------|
|-----x-----x|-----x------|------------|------------|
|-----x-----x|-----x------|------------|------------|
|-7789x-7789x|-7789x-7789-|9-----------|------------|
|-7789x-7789x|-7789x-7789-|9-----------|------------|
|-5567x-5567x|-5567x-5567-|7-----------|------------|

 Outro:
  |8x**************|
|------------|------------|------------|------------|
|------------|------------|------------|------------|
|-------899--|---7--------|------------|------------|
|-77899-899-6|77-77-------|7789\-------|------------|
|-77899-677-6|77-57-------|7789\-------|------------|
|-55677-----4|55--5-------|5567\-------|------------|


Enviada por Sem inscrição
Nº de acordes: 0