Green Day

Oh Love

Green Day

1.365 exibições
  • Violão
  • Guitarra
  • Teclado
  • Cavaquinho
  • Contra-baixo
  • Bateria
  • Gaita
  • Guitar Pro
Capotraste 1ª casa

Tom: G

Verso:
e|---------------------------------|----------|
B|---------------------------------|----------|
G|----------5-----------5--5--5--5-|-------5--|
D|--5-5-----5--5-5------5--5--5--5-|-5-5---5--|
A|--5-5-----3--5-5------3--3--3--3-|-5-5---3--|
E|--3-3--------3-3-----------------|-3-3------|
                                  


Pré-Refrão:
e|-----------------------------------------------|
B|-----------------------------------------------|
G|--5--5--5--5--7-7-7-7-7-7-7-7-7-7-7-7-7-7-7-7--|
D|--5--5--5--5--7-7-7-7-7-7-7-7-7-7-7-7-7-7-7-7--|
A|--3--3--3--3--5-5-5-5-5-5-5-5-5-5-5-5-5-5-5-5--|
E|-----------------------------------------------|

Refrão:
e|-------------------------------------------------------------------|
B|-------------------------------------------------------------------|
G|----------7-7-7-7---------5-5-5-5---------7-7-7-7---------7-7-7-7--|
D|--5-5-5-5-7-7-7-7-5-5-5-5-5-5-5-5-5-5-5-5-7-7-7-7-5-5-5-5-7-7-7-7--|
A|--5-5-5-5-5-5-5-5-5-5-5-5-3-3-3-3-5-5-5-5-5-5-5-5-5-5-5-5-5-5-5-5--|
E|--3-3-3-3---------3-3-3-3---------3-3-3-3---------3-3-3-3----------|

e|--------------------------------------------------|
B|--------------------------------------------------|
G|----------7-7-7-7---------5-5-5-5---------7-7-7-7-|
D|--5-5-5-5-7-7-7-7-5-5-5-5-5-5-5-5-5-5-5-5-7-7-7-7-|
A|--5-5-5-5-5-5-5-5-5-5-5-5-3-3-3-3-5-5-5-5-5-5-5-5-|
E|--3-3-3-3---------3-3-3-3---------3-3-3-3---------|


Break:
e|--------------------------------------------------------------------|
B|--------------------------------------------------------------------|
G|-------------0---7-7----7-7-------------0---7-7---7-7-------------0-|
D|--5-5-5-5-5-52---7-7----7-7---5-5---5-5-2---7-7---7-7---5-5---5-5-2-|
A|--5-5-5-5-5-53---5-5----5-5---5-5---5-5-3---5-5---5-5---5-5---5-5-3-|
E|--3-3-3-3-3-3-----------------3-3---3-3-----------------3-3---3-3---|

e|-----------------------------------------|
B|-----------------------------------------|
G|--7-7---7-7---------10-10--7-7-7-7-9-9---|
D|--7-7---7-7---5-5---10-10--7-7-7-7-9-9---|
A|--5-5---5-5---5-5---8--8---5-5-5-5-7-7---|
E|--------------3-3------------------------|


Final:
e|-----------------------------------------------------------------------------|
B|-----------------------------------------------------------------------------|
G|-----------7-7-7-7---------7--7-----------7-7-7-7--------7-7---------5-------|
D|--5-5-5-5--7-7-7-7---5--5--7--7--5-5-5-5--7-7-7-7--5--5--7-7--5-5-5-55---5-5-|
A|--5-5-5-5--5-5-5-5---5--5--5--5--5-5-5-5--5-5-5-5--5--5--5-5--5-5-5-53---5-5-|
E|--3-3-3-3------------3--3--------3-3-3-3-----------3--3-------3-3-3-3----3-3-|


(Verso) 5x
(Pré-Refrão)
(Refrão)
(Verso) 5x
(Refrão)
(Break)
(Refrão)
(Pré-Refrão)
(Verso) 3x
(Pré-Refrão)
(Refrão) 2
(Final)


Enviada por Sem inscrição
Nº de acordes: 1