Foo Fighters

But, Honestly

Foo Fighters

449 exibições
  • Violão
  • Guitarra
  • Teclado
  • Cavaquinho
  • Contra-baixo
  • Bateria
  • Gaita
  • Guitar Pro
Legend: x  - Dampen Notes Heavily With Fretting Hand
        /  - Slide Up Or Down To Desired Note
        PM - Mute Strings Lightly With Picking Hand
        ~  - Let Notes Ring

Update: 23 July 2008: Added Alternate Ending Solo

Intro
e|--0-0-0-0--0-0-0-0--0-0-0-0----0--0--0--0--|
B|--0-0-0-0--0-0-0-0--0-0-0-0----0--0--0--0--|
G|--9-9-9-9--8-8-8-8--9-9-9-9/--13-13-13-13--| x2
D|--9-9-9-9--9-9-9-9--9-9-9-9/--14-14-14-14--|
A|--7-7-7-7--x-x-x-x--0-0-0-0----0--0--0--0--|
E|-----------7-7-7-7-------------------------|

Verse
e|--0-0-0-0--0-0-0-0--0-0-0-0----0--0--0--0--|
B|--0-0-0-0--0-0-0-0--0-0-0-0----0--0--0--0--|
G|--9-9-9-9--8-8-8-8--9-9-9-9/--13-13-13-13--| x4
D|--9-9-9-9--9-9-9-9--9-9-9-9/--14-14-14-14--|
A|--7-7-7-7--x-x-x-x--0-0-0-0----0--0--0--0--|
E|-----------7-7-7-7-------------------------|

Chorus (Note: At "Dont Take What I Don't Need" etc,you
can play the High E & B Strings Make It Sound Fuller)
e|------------------------------------|
B|------------------------------------|
G|--------13-------13-------13--------|
D|-----14----14-------14-------14-----|
A|--13----------13-------13-------13--|
E|------------------------------------|
 Maybe___

|-------0--0--0---0--0--0---0--0--0---------0--0--0--------|
|-------0--0--0---0--0--0---0--0--0---------0--0--0--------|
|------13-13-13--13-13-13--13-13-13--------11-11-11--------|
|------14-14-14--14-14-14--14-14-14--------11-11-11--------| x3
|------12-12-12---x--x--x--13-13-13---------9--9--9--------|
|----------------12-12-12----------------------------------|
Don’t take what I_______ don’t need___                      Don’t Take...
                                    (Give me back my piece of mind)
|--0-0-0-0--|
|--0-0-0-0--|
|--9-9-9-9--|
|--9-9-9-9--|
|--7-7-7-7--|
|-----------|
You’ll see

Verse
e|--0-0-0-0--0-0-0-0--0-0-0-0----0--0--0--0--|
B|--0-0-0-0--0-0-0-0--0-0-0-0----0--0--0--0--|
G|--9-9-9-9--8-8-8-8--9-9-9-9/--13-13-13-13--| x6
D|--9-9-9-9--9-9-9-9--9-9-9-9/--14-14-14-14--|
A|--7-7-7-7--x-x-x-x--0-0-0-0----0--0--0--0--|
E|-----------7-7-7-7-------------------------|

Chorus
e|------------------------------------|
B|------------------------------------|
G|--------13-------13-------13--------|
D|-----14----14-------14-------14-----|
A|--13----------13-------13-------13--|
E|------------------------------------|
 Maybe___

|----------------------------------------------------------|
|----------------------------------------------------------|
|------13-13-13--13-13-13--13-13-13--------11-11-11--------|
|------14-14-14--14-14-14--14-14-14--------11-11-11--------| x3
|------12-12-12---x--x--x--13-13-13---------9--9--9--------|
|----------------12-12-12----------------------------------|
Don’t take what I_______ don’t need___                      Don’t Take...
                                    (Give me back my piece of mind)
|--0-0-0-0--|
|--0-0-0-0--|
|--9-9-9-9--|
|--9-9-9-9--|
|--7-7-7-7--|
|-----------|

Bridge (Gtr.2 enters where shown)
Gtr. 1
(For the first chord in the sequence you can play
a B with the high e open ["and tonight" & "all the
words" is where it is played])
e|--0-0-0-0--0-0-0-0--0-0-0-0--0-0-0-0-0-0-0-0--|
B|--0-0-0-0--0-0-0-0--0-0-0-0--0-0-0-0-0-0-0-0--|
G|--8-8-8-8--6-6-6-6--5-5-5-5--1-1-1-1-1-1-1-1--|
D|--9-9-9-9--6-6-6-6--5-5-5-5--2-2-2-2-2-2-2-2--|
A|--9-9-9-9--4-4-4-4--3-3-3-3--2-2-2-2-2-2-2-2--|
E|-----------------------------0-0-0-0-0-0-0-0--|
 And tonight… Stars…… scars……  given me……

e|-0-0-0-0--0-0-0-0--0-0-0-0--0-0-0-0--0-0-0-0--0-0-0-0--0-0-0-0--0-0-0-0-|
B|-0-0-0-0--0-0-0-0--0-0-0-0--0-0-0-0--0-0-0-0--0-0-0-0--0-0-0-0--0-0-0-0-|
G|-8-8-8-8--6-6-6-6--5-5-5-5--5-5-5-5--5-5-5-5--5-5-5-5--5-5-5-5--5-5-5-5-|
D|-9-9-9-9--6-6-6-6--5-5-5-5--5-5-5-5--5-5-5-5--5-5-5-5--5-5-5-5--5-5-5-5-|
A|-9-9-9-9--4-4-4-4--3-3-3-3--3-3-3-3--3-3-3-3--3-3-3-3--3-3-3-3--3-3-3-3-|
E|------------------------------------------------------------------------|
    All the… to you…  blue…                      [Gtr.2 Enters]

Gtr.2 (Let Ring On Single Notes, and repeat first bar once to build up)
      (After two bars of first sequence start palm muting)
    ~  ~  ~  ~  ~  ~  ~  ~   PM----------------------------------------|
e|--0--0--0--0--0--0--0--0--|--0-0-0-0--0-0-0-0--0-0-0-0--0-0-0-0------|
B|--0--0--0--2--0--0--0--2--|--0-0-0-0--0-0-0-0--0-0-0-0--2-2-2-2------|
G|--1--7--5--2--1--7--5--2--|--1-1-1-1--7-7-7-7--5-5-5-5--2-2-2-2------|
D|--2--7--5--2--2--7--5--2--|--2-2-2-2--7-7-7-7--5-5-5-5--2-2-2-2------|
A|--2--5--3--0--2--5--3--0--|--2-2-2-2--5-5-5-5--3-3-3-3--0-0-0-0------|
E|--0-----------0-----------|--0-0-0-0---------------------------------|

Outro
Gtr. 1
e|--0-0-0-0--0-0-0-0--0-0-0-0--0-0-0-0--|
B|--0-0-0-0--0-0-0-0--0-0-0-0--2-2-2-2--|
G|--1-1-1-1--7-7-7-7--5-5-5-5--2-2-2-2--| x6
D|--2-2-2-2--7-7-7-7--5-5-5-5--2-2-2-2--|
A|--2-2-2-2--5-5-5-5--3-3-3-3--0-0-0-0--|
E|--0-0-0-0-----------------------------|


Gtr. 3 (Play each top section 4 times and the 
bottom part once in each progression, Play 6 
times till fade out)
(Barre the 9th and 7th frets with your indexfinger
 for first three progressions is how i find it easiest)
[NOTE: The Last 2 bars of the progression can be played
as it is shown below, different people may like it better] 

e|-------------------|-----------------|----------------|
B|---12--10--9--10---|---10--9---------|---8--7---------|
G|-------------------|----------11--9--|---------9--7---|
D|-------------------|-----------------|----------------|
A|-------------------|-----------------|----------------|
E|-------------------|-----------------|----------------|
  x4                  x4                x4 
e|------------------------------------------------------------|
B|------------------------------------------------------------|
G|--------------11--12--14-------------11--12--14-------------|
D|---11--12--14-------------11--12--14------------11--12--14--|
A|------------------------------------------------------------|
E|------------------------------------------------------------|
  x2
Alternate Last 2 Bars: *Compliments Samuelf*
e|------------------------------------------------------------|
B|---------------7---8---10-------------7---8---10------------|
G|----6---7----9-------------6---7---9-------------6---7---9--|
D|------------------------------------------------------------|
A|------------------------------------------------------------|
E|------------------------------------------------------------| 
  x2
Song Order:
Intro
Verse
Chorus
Verse
Chorus
Bridge
Outro


Enviada por tinho
Nº de acordes: 0