Eisbrecher

Die Engel

Eisbrecher

2 exibições
  • Violão
  • Guitarra
  • Teclado
  • Cavaquinho
  • Contra-baixo
  • Bateria
  • Gaita
  • Guitar Pro
Tuning: C# G# C# F# A# d#

Intro

d#|-------------------------------------------------|
A#|-------------------------------------------------|
F#|-------------------------------------------------|
C#|-10-10-10-10-10-10-10-10-10-10-10-10-10-10-10-10-|
G#|-10-10-10-10-10-10-10-10-10-10-10-10-10-10-10-10-|
C#|-10-10-10-10-10-10-10-10-10-10-10-10-10-10-10-10-|

d#|-------------------------------------------------|
A#|-------------------------------------------------|
F#|-------------------------------------------------|
C#|-8-8-8-8-8-8-8-8-5-5-5-5-5-5-5-5-----------------|
G#|-8-8-8-8-8-8-8-8-5-5-5-5-5-5-5-5-----------------|
C#|-8-8-8-8-8-8-8-8-5-5-5-5-5-5-5-5-----------------| (2x)

Verse

d#--------NONE--------------------------------------|
A#--------NONE--------------------------------------|
F#--------NONE--------------------------------------|
C#--------NONE--------------------------------------|
G#--------NONE--------------------------------------|
C#--------NONE--------------------------------------|

Chorus

d#|-------------------------------------------------|
A#|-------------------------------------------------|
F#|-------------------------------------------------|
C#|-10-10-10-10-10-10-10-10-10-10-10-10-10-10-10-10-|
G#|-10-10-10-10-10-10-10-10-10-10-10-10-10-10-10-10-|
C#|-10-10-10-10-10-10-10-10-10-10-10-10-10-10-10-10-|

d#|-------------------------------------------------|
A#|-------------------------------------------------|
F#|-------------------------------------------------|
C#|-8-8-8-8-8-8-8-8-5-5-5-5-5-5-5-5-----------------|
G#|-8-8-8-8-8-8-8-8-5-5-5-5-5-5-5-5-----------------|
C#|-8-8-8-8-8-8-8-8-5-5-5-5-5-5-5-5-----------------| (2x)

Verse


d#--------NONE--------------------------------------|
A#--------NONE--------------------------------------|
F#--------NONE--------------------------------------|
C#--------NONE--------------------------------------|
G#--------NONE--------------------------------------|
C#--------NONE--------------------------------------|

Chorus

d#|-------------------------------------------------|
A#|-------------------------------------------------|
F#|-------------------------------------------------|
C#|-10-10-10-10-10-10-10-10-10-10-10-10-10-10-10-10-|
G#|-10-10-10-10-10-10-10-10-10-10-10-10-10-10-10-10-|
C#|-10-10-10-10-10-10-10-10-10-10-10-10-10-10-10-10-|

d#|-------------------------------------------------|
A#|-------------------------------------------------|
F#|-------------------------------------------------|
C#|-8-8-8-8-8-8-8-8-5-5-5-5-5-5-5-5-----------------|
G#|-8-8-8-8-8-8-8-8-5-5-5-5-5-5-5-5-----------------|
C#|-8-8-8-8-8-8-8-8-5-5-5-5-5-5-5-5-----------------| (2x)

Solo

Chorus

d#|-------------------------------------------------|
A#|-------------------------------------------------|
F#|-------------------------------------------------|
C#|-10-10-10-10-10-10-10-10-10-10-10-10-10-10-10-10-|
G#|-10-10-10-10-10-10-10-10-10-10-10-10-10-10-10-10-|
C#|-10-10-10-10-10-10-10-10-10-10-10-10-10-10-10-10-|

d#|-------------------------------------------------|
A#|-------------------------------------------------|
F#|-------------------------------------------------|
C#|-8-8-8-8-8-8-8-8-5-5-5-5-5-5-5-5-----------------|
G#|-8-8-8-8-8-8-8-8-5-5-5-5-5-5-5-5-----------------|
C#|-8-8-8-8-8-8-8-8-5-5-5-5-5-5-5-5-----------------| (2x)


Enviada por Sem inscrição
Nº de acordes: 5