Earth Crisis

Paint It Black

Earth Crisis

69 exibições
  • Violão
  • Guitarra
  • Teclado
  • Cavaquinho
  • Contra-baixo
  • Bateria
  • Gaita
  • Guitar Pro
Tuning:Drop B – [B Gb B E Ab Db] or [B F# B E G# C#]

This tune rocks, it's one I really miss playing live, it always went over well.

Intro - Clean
Db|-------------------------------------------------------------------------|
Ab|-------------------------------------------------------------------------|
 E|----7-9-10-12-10-9-7-7-6-7-9----4h6h7--7p6p4h6---------------------------|
 B|--0--0-0--0--0--0-0-0-0-0-0----------------------------------------------|
Gb|-------------------------------------------------------------------------|
 B|-------------------------------------------------------------------------|
Verse - Distorted
Db|-------------------------------------------------------------------------|
Ab|-------------------------------------------------------------------------|
 E|----7-9-10-12-10-9-7-7-6-7-9----9p7p6\4h6--------------------------------|
 B|-------------------------------------------------------------------------|
Gb|-------------------------------------------------------------------------|
 B|-------------------------------------------------------------------------|
Chorus
Db|-------------------------------------------------------------------------|
Ab|---------------------|pmx-x-x-x-x-x-x-x-x-x-x-x-x-x-x|-------------------|
 E|-------------------------------------------------------------------------|
 B|--7-7-5-5-----5-5-5-5----------------------------------------------------|
Gb|--5-5-3-3-3-3-3-3-3-3-0-0-0-0-0-0-0-0-0-0-0-0-0-0-0-0--------------------|
 B|----------3-3---------0-0-0-0-0-0-0-0-0-0-0-0-0-0-0-0--------------------|

Db|-------------------------------------------------------------------------|
Ab|-------------------------------------------------------------------------|
 E|-------------------------------------------------------------------------|
 B|--7-7-5-5-----5-5-5-5----------------------------------------------------|
Gb|--5-5-3-3-3-3-3-3-3-3-5-5-5-5-5-5-5-5-7-7-7-7-7-7-7-7--------------------|
 B|----------3-3---------5-5-5-5-5-5-5-5-7-7-7-7-7-7-7-7--------------------|


Enviada por Sem inscrição
Nº de acordes: 8