Decyfer Down

Price Of Fame

Decyfer Down

2 exibições
  • Violão
  • Guitarra
  • Teclado
  • Cavaquinho
  • Contra-baixo
  • Bateria
  • Gaita
  • Guitar Pro
Tuning: Eb Ab Db Gb Bb eb (standard half step down)

This is my first tab. Please tell me what you think about it. This is just the very basic guitar part. 

Intro/Verse (figure out picking pattern, it's not hard):
e|--0---0---3---2-----------------------------------------------------------|
B|--0---1---3---3-----------------------------------------------------------|
G|--0---0---0---2-----------------------------------------------------------|
D|--2---2---0---0-----------------------------------------------------------|
A|--2---3---2---------------------------------------------------------------|
E|--0-------3---------------------------------------------------------------|

Chorus:
e|--3---2---0---0-----------------------------------------------------------|
B|--3---3---0---1-----------------------------------------------------------|
G|--0---2---0---0-----------------------------------------------------------|
D|--0---0---2---2-----------------------------------------------------------|
A|--2-------2---3-----------------------------------------------------------|
E|--3-------0---------------------------------------------------------------|

Interlude (light palm muting emphasized on B and e strings)
e|--0---3---2---------------------------------------------------------------|
B|--1---3---3---------------------------------------------------------------|
G|--0---0---2---------------------------------------------------------------|
D|--2---0---0---Strum D chord until chorus----------------------------------|
A|--3---2-------------------------------------------------------------------|
E|------3-------------------------------------------------------------------|

Song Order:
Intro/Verse
Chorus
Verse
Chorus
Interlude
Chorus (fade until end)


Enviada por fred
Nº de acordes: 5