Deaf Havana

Youth In Retrospect

Deaf Havana

42 exibições
  • Violão
  • Guitarra
  • Teclado
  • Cavaquinho
  • Contra-baixo
  • Bateria
  • Gaita
  • Guitar Pro
Intro: 
e|------------------------------------------------------|
B|------------------------------------------------------|
G|------------------------------------------------------|
D|------------------------------------------------------|
A|-9h1111119h11119h1111-6-6--9h1111119h11119h1111-6-6-6-|
E|-0---0-0-0---0-0---0--4-4--0---0-0-0---0-0---0--4-4-4-|


e|------------------------------------xx-|
B|------------------------------------xx-|
G|------------------------------------xx-|
D|------------------------------------xx-|
A|-9h11111111-6--666-9h1111119h1111-6-xx-|
E|-0---0-0-0--0h4444-0---0-0-0---0--4-xx-|


e|---------------------------------------------------------|
B|---------------------------------------------------------|
G|---------------------------------------------------------|
D|---------------------------------------------------------|  x2
A|-9h1111111111111111-6--6666666-9h1111111111111111-6-6-66-|
E|-0---0-0-0-0-0-0-0--0h44444444-0---0-0-0-0-0-0-0--4-4-44-|


Verse 1 (Should be played by 2 guitars I think, but I'll write them as one):
e|---4~-------4~---4~---|
B|---4~-------4~---4~---|
G|---4~-------4~---4~---|
D|-2~-------4~---6~-----| x4
A|-2~-------4~---6~-----|
E|-0~-------2~---4~-----|

Very faint lead part that comes in third time round:
e|----------------------------------|
B|----------------------------------|
G|-6h8~---6h8~-8h10~-6h8~---6h8~-6--|
D|--------------------------------6-|
A|----------------------------------|
E|----------------------------------|

Pre-Chorus:
e|---------------------xx-|
B|---------------------xx-|
G|---------------------xx-|
D|-2----4----6----7----xx-|
A|---------------------xx-|
E|-0----2----4----5----xx-|

Chorus (play x2):
e|------------------------------------------------------------------------|
B|------------------------------------------------------------------------|
G|------------------------------------------------------------------------|
D|-22222222-66666666-22222222-66666666-22222222-66666666-4444444444444444-|
A|-22222222-66666666-22222222-66666666-22222222-66666666-4444444444444444-|
E|-00000000-44444444-00000000-44444444-00000000-44444444-2222222222222222-|

Post-Chorus:
e|--------------------------------------------|
B|--------------------------------------------|
G|------------------------------11------------|
D|-----------------------------9---9----------|
A|-9h1111119h11119h1111-6-6---9-----911-6-6-6-|
E|-0---0-0-0---0-0---0--4-4--0~---------4-4-4-|

e|---------------------------------------------------------|
B|---------------------------------------------------------|
G|---------------------------------------------------------|
D|---------------------------------------------------------|
A|-9h1111111111111111-6--6666666-9h1111111111111111-6-6-66-|
E|-0---0-0-0-0-0-0-0--0h44444444-0---0-0-0-0-0-0-0--4-4-44-|

Verse 2:
e|---4~-------4~---4~---|
B|---4~-------4~---4~---|
G|---4~-------4~---4~---|
D|-2~-------4~---6~-----| x2
A|-2~-------4~---6~-----|
E|-0~-------2~---4~-----|

Now, we split into two guitars:
Rhythm:
e|---------------------------------------xx-|
B|---------------------------------------xx-|
G|---------------------------------------xx-|
D|-22222222-4444-6666-22222222-4444-6666-xx-|
A|-22222222-4444-6666-22222222-4444-6666-xx-|
E|-00000000-2222-4444-00000000-2222-4444-xx-|
    .......  ...  ...  .......  ...  ...

Lead:
e|-------------------------------------------------------------xx-|
B|------------7-----------7----------------7-------------------xx-|
G|---------6h8-8~--4h6~----8~-----------6h8-8~--4h6~---64------xx-|
D|----4~---------------------------4~---------------------6~---xx-|
A|-4h6--------------------------4h6----------------------------xx-|
E|-------------------------------------------------------------xx-|

Chorus

Bridge (part 1):
e|------------------------------------------|
B|------------------------------------------|
G|------------------------------------------|
D|-222222-66-222222-66-222222-66-4444-xx-xx-|
A|-222222-66-222222-66-222222-66-4444-xx-xx-|
E|-000000-44-000000-44-000000-44-2222-xx-xx-|

e|---------------------------------------|
B|---------------------------------------|
G|---------------------------------------|
D|-222222-66-222222-66-77777777-22222222-|
A|-222222-66-222222-66-77777777-22222222-|
E|-000000-44-000000-44-55555555-00000000-|

Bridge (part 2):
Play around with these chords, not quite sure which notes to play.

E G#m E G#m E G#m F# (F#sus4 F#)

Chorus

Solo over chorus chords:
e|-----------------------------------------------------------|
B|-----------------------------------------------------------|
G|-15-15151515b16r--------------------8-11-8---------8-11-8--|
D|----------------13131313- x3 -11-9-11-----9-11-9-11------9-| x2
A|-----------------------------------------------------------|
E|-----------------------------------------------------------|

End:
e|-------------|
B|-------------|
G|-------------|
D|-77777777-2~-|
A|-77777777-2~-|
E|-55555555-0~-|


Enviada por Sem inscrição
Nº de acordes: 4