Creed

My Sacrifice

Creed

857 exibições
Tom: Bm

     B9    Bm       G9    
e|------------------------------0-----------------
B|---2-----3-----------10---------10--------------
G|-----4-----4------------12---------12-----------
D|-------4-----4-------------12---------12--------
A|-2--------------0-10----------------------------
E|------------------------------------------------

e|------------------------------------------------
B|------------------------------------------------
G|-7-7\6-6/7-7--7-7\6-6/11-11/12------------------
D|-x-x-x-x-x-x--x-x-x-x/x--x--x-------------------
A|-5-5\4-4/5-5--5-5\4-4/9--9-/10------------------
E|------------------------------------------------
  
     B9      Bm       G9       
e|--------------------------------0---------------
B|-----2-----3-----------10---------10------------
G|-------4-----4------------12---------12---------
D|---------4-----4-------------12---------12------
A|-0-2--------------0-10--------------------------
E|------------------------------------------------

Riff 1:
   D9                                                 B5        G5
e|---------------------------------------------------------------------------
B|---------------------------------------------------------------------------
G|-7\6-6/7-7---7\6-6/7-7-9--7\6-6/7-7--7\6-6/7-7\6-6--4-4-4-4-4/12-12-12-12--
D|-x-x-x-x-x---x-x-x-x-x-x--x-x-x-x-x--x-x-x-x-x-x-x--4-4-4-4-4/12-12-12-12-- (Com distorção)
A|-5\4-4/5-5---5\4-4/5-5-7--5\4-4/5-5--5\4-4/5-5\4-4--2-2-2-2-2/10-10-10-10--
E|---------------------------------------------------------------------------

(Riff 1)
D9                               
Hello my friend we meet again
It’s been a while where should 
     B5                 G5
we begin  Feels like forever
D9
Within my heart are memories
                                B5
Of perfect love that you gave to me
     G5    F5
I remember

Refrão:
              D5
When you are with me
     A5         B5           G5    
I’m free ,I’m careless, I believe
F5             D5            A5
 Above all the others we’ll fly
            B5           G5 
This brings tears to my eyes
F5        
My sacrifice (Riff 1)

Verso 2:
D9
We’ve seen our share of ups and downs
                               B5
Oh how quickly life can turn around in 
   G5
an instant
D9
It feels so good to reunite
                                 B5
Within yourself and within your mind
            G5         F5
Let’s find peace there

Refrão:
              D5
When you are with me
     A5         B5           G5    
I’m free ,I’m careless, I believe
F9             D5            A5
 Above all the others we’ll fly
            B5           G5 
This brings tears to my eyes
F5        
My sacrifice (Riff 1)

Solo:
e|------------------------------------------------------
B|------------------------------------------------------
G|--11-11\9---9-9\7---7-7\6---4/6-7-7-7\6-6/9-----------
D|--x--x-\x-0-x-x\x-0-x-x\x-0-x/x-x-x-x\x-x/x-----------
A|--9--9-\7-0-7-7\5-0-5-5\4-0-2/4-5-5-5\4-4/7-----------
E|------------------------------------------------------

e|------------------------------------------------------|
B|------------------------------------------------------|
G|--15-15-15-15---15-15-15-15---------------------------|
D|--x--x--x--x--0-x--x--x--x--0-0-0-0-------------------|
A|--13-13-13-13-0-13-13-13-13-0-0-0-0-------------------|
E|------------------------------------------------------|

I just want to say hello again (2x)

Refrão:
              D9
When you are with me
     A         Bm           G    
I’m free ,I’m careless, I believe
F              D9            A
 Above all the others we’ll fly
            Bm           G 
This brings tears to my eyes
F5          
My sacrifice

              D5
When you are with me
     A5         B5           G5    
I’m free ,I’m careless, I believe
F5             D5            A5
 Above all the others we’ll fly
            B5           G5 
This brings tears to my eyes
F5         
My sacrifice

(Solo)


Enviada por Sem inscrição
Nº de acordes: 13