Boyce Avenue

With You (chris Brown)

Boyce Avenue

454 exibições
  • Violão
  • Guitarra
  • Teclado
  • Cavaquinho
  • Contra-baixo
  • Bateria
  • Gaita
  • Guitar Pro
Key of D

Tuning: D  G  C  F  A  D

X = mute
/ = slide up

Intro: 
-0----0----0----0-|
-0----0----5----0-|
-(b9)---8----6----8-|
-(b9)---(b9)---7----(b9)|
-7----7----0----7-|
-0----0----0----0-|

Verse 1 and 2:
-0----0----0----0-|
-0----0----5----0-|
-(b9)---8----6----8-|
-(b9)---(b9)---7----(b9)| (palm muted strums)
-7----7----0----7-|
-0----0----0----0-|

Pre-chorus 1:
-0---0---0---0---0---0---0---0-|
-0---0---0---0---0---0---0---0-|
-2---4---4---4---2---4---4---4-|
-2---4---2---2---2---4---2---2-|
-0---2---x---0---0---2---x---0-|
---------4---------------4-----|
                                (slight palm mute)
-0---0---0---0---0---0-|
-0---0---0---0---0---0-|
-2---4---6---3---2---4-|
-2---4---6---4---2---4-|
-0---2---4---4---0---2-|
-------------2---------|

Chorus 1:
-0----0----0----0----0----0----0----0-|
-0----0----0----0----0----0----0----0-|
-1----8----6----8----1----8----6----8-|
-2----(b9)---7----(b9)---2----(b9)---7----(b9)|
-2----(b9)---7----(b9)---2----(b9)---7----(b9)|
-0----7----5----7----0----7----5----7-|

-0---0---0---0---0---0---0-|
-0---0---0---0---0---0---0-|
-2---4---4---4---2---4---2-|
-2---4---2---2---2---4---2-|
-0---2---x---0---0---2---0-|
---------4-----------------|

Pre-chorus 2:
-0---0---0---0---0---0-|
-0---0---0---0---0---0-|
-2---4---6---3---2---4-|
-2---4---6---4---2---4-|
-0---2---4---4---0---2-|
-------------2---------|

Verse 2:
-0----0----0----0-|
-0----0----5----0-|
-(b9)---8----6----8-|
-(b9)---(b9)---7----(b9)| (palm muted strums)
-7----7----0----7-|
-0----0----0----0-|

Chorus 2:
-0----0----0----0----0----0----0----0-|
-0----0----0----0----0----0----0----0-|
-1----8----6----8----1----8----6----8-|
-2----(b9)---7----(b9)---2----(b9)---7----(b9)|
-2----(b9)---7----(b9)---2----(b9)---7----(b9)|
-0----7----5----7----0----7----5----7-|

-0---0---0---0---0---0---0-|
-0---0---0---0---0---0---0-|
-2---4---4---4---2---4---(b9)|
-2---4---2---2---2---4---(b9)|
-0---2---x---0---0---2---7-|
---------4---------------0-|


Bridge: (palm mute)
-0----0--0--0----0--0-|
-0----0--0--0----0--0-|
-2----6--4--2----6--4-|
-2----6--4--2----6--4-|
-0----4--2--0----4--2-|
----------------------|

-0---0---0---0---0------0-----|
-0---0---0---0---0------0-----|
-2---4---6---3---2------4---/-|
-2---4---6---4---2------4---/-|
-0---2---4---4---0------2---/-|
-------------2----------------|


Chorus 3:
-0----0----0----0----0----0----0----0-|
-0----0----5----0----0----0----0----0-|
-(b9)---8----6----8----1----8----6----8-|
-(b9)---(b9)---7----(b9)---2----(b9)---7----(b9)|
-7----7----0----7----2----(b9)---7----(b9)|
-0----0----0----0----0----7----5----7-|

-0---0---0---0---0---0---0---0-|
-0---0---0---0---0---0---0---0-|
-2---4---4---4---2---4---4---4-|
-2---4---2---2---2---4---2---2-|
-0---2---x---0---0---2---x---0-|
---------4---------------4-----|

-0---0---0---0---0---0---0-|
-0---0---0---0---0---0---0-|
-2---4---4---4---2---4---1-|
-2---4---2---2---2---4---2-|
-0---2---x---0---0---2---2-|
---------4---------------0-|


Enviada por tinho
Nº de acordes: 5