Boyce Avenue

Say (john Mayer)

Boyce Avenue

457 exibições
  • Violão
  • Guitarra
  • Teclado
  • Cavaquinho
  • Contra-baixo
  • Bateria
  • Gaita
  • Guitar Pro
Tuning: F A# D# G# C D# (Capotraste 7th fret)

x = mute
/ = slide
^ = hammer on

Verse 1: (play 4 times) (w/fingers)
---4-----4--------5-----5-----5---4-----4--------2-----2----2-|
---3-----3--------3-----3-----3---3-----3--------3-----3----3-|
-----2------2-------2-----2---------2------2-------0-----0----|
-4-----4------4/5-----5-----5---4-----4------4/5-----5-----5--|
--------------------------------------------------------------|
--------------------------------------------------------------|

Chorus 1: (play 4 times) (w/fingers)
-----0-------0-------0-------0---|
-------3-------3-------3-------2-|
---2-------0---------------------|
-0-----------------4-------2-----|
-----------------2-------0-------|
---------3-----------------------|

Turnaround: (after 1st chorus) (w/fingers)
---4-----4--------5-----5-----5---4-----4--------|
---3-----3--------3-----3-----3---3-----3--------|
-----2------2-------2-----2---------2------2-----|
-4-----4------4/5-----5-----5---4-----4------4/2-|
---------------------------------------------0---|
-------------------------------------------------|

Verse 2: (w/pick)
-x-x-x-x-
-x-x-x-x-
-x-x-x-x-
-x-x-x-x- (muted strum)
-x-x-x-x-
-x-x-x-x-

-0---0---0---0-0---|
-3---3---3---2-2^3-|
-2---0---4---2-2---|
-0---0---4---2-2---| (play 4 times)
-----x---2---0-0---|
-----3-------------|

Chorus 2: (play 4 times) (w/pick)
-0---0---0---0-|
-3---3---3---2-|
-2---0---4---2-|
-0---0---4---2-|
-0---x---2---0-|
-2---3---2---0-|

Bridge:
-0------0---0---0---0---0---0------0---0---0---0-|
-0------3---2---0---3---2---0------3---2---3---2-|
-2------0---2---2---0---2---2------0---2---0---2-|
-2------0---2---2---0---2---2------0---2---0---2-|
-2------2---0---2---2---0---2------2---0---2---0-|
-0------3-------0---3-------0------3-------3-----|

Breakdown/Verse 3: (w/fingers)
-----0-------0-------0-------0---|
-------3-------3-------3-------2-|
---2-------0---------------------|
-0-----------------4-------2-----| (play 4 times)
-----------------2-------0-------|
---------3-----------------------|

-----0-------0-------0-----|
-------3-------3-------3---|
---2-------0---------------|
-0-----------------4-----2-|
-----------------2-------0-|
---------3-----------------|

Chorus 3: (w/pick)
-x-x-x-x-
-x-x-x-x-
-x-x-x-x-
-x-x-x-x- (muted strum)
-x-x-x-x-
-x-x-x-x-

-0---0---0--0---0-|
-0---3---3--3---3-|
-4---2---0--0^2-0-| (play 4 times)
-4---0---0--0---0-|
-2---0---x--x---x-|
-2---2---3--3---3-|

Outro:
-0-0-0-----0--0--0---0--0-|
-3-3-3-----3--3--3---3--3-|
-0-0-0-----0--0--0^2-2--2-|
-0-0-0-----0--0--0^2-2--2-|
-x-x-x-----x--x--0---0--0-|
-3-3-3-----3--3--x--------|

-0-0-0-----0--0--0---0--0---0-0-0-|
-3-3-3-----3--3--3---3--3---0-0-0-|
-0-0-0-----0--0--0^2-2--2---0-0-0-|
-0-0-0-----0--0--0^2-2--2---0-0-0-|
-x-x-x-----x--x--0---0--0---2-2-2-|
-3-3-3-----3--3--x----------3-3-3-|


Enviada por tinho
Nº de acordes: 5