• Violão
  • Guitarra
  • Teclado
  • Cavaquinho
  • Contra-baixo
  • Bateria
  • Gaita
  • Guitar Pro
Capotraste 2ª casa

Intro & Verse

e|------------------------------------------------------------------------|
B|------------------------------------------------------------------------|
F#|------3h5p3p0-----------0----------------------------------------------|
D|------0--------2p0------0h2-2--0----------------------------------------|x2
A|-----0-----------------2------2-----------------------------------------|
D|----0----------------2--------------------------------------------------|

e|--------------------------------------------------------------------------|
B|-------------------------2h3-----3----3---5/7\5-3-0-1-2-3-----------------|
F#|------3h5p3p0-----------0-------5----5-----------------------------------|
D|------0--------2p0-----2-------4------------------------------------------|
A|-----0----------------0-------2-----2-------------------------------------|
D|----0---------------------------------------------------------------------|

Once is better than a life-time
Once is better than whole long side
When you catch it in the all bold life
He can get it in the after
He can hold it in the older while
When the back of her, your so damn worked-over


e|--------------------------------------------------------------------------|
B|-------10-10--------9-9--------5-5-----5-5--------------------------------|
F#|------0------------0------------0----------------------------------------|
D|----0------------0------------0-------------------------------------------|x2
A|--------------------------------------------------------------------------|
D|--0------------0------------0---------------------------------------------|

in this part i am pretty sure i play it wrong :)

e|------------------------------------------------------------------------|
B|------------0-------------0-------------0----3-----2--------------------|
F#|-----5-0--0--------5-0--0--------5-0--0-----5-----3--------------------|x4
D|----0-----2---0---0-----2---0---0-----2----4-----4----------------------|
A|------------------------------------------2-----4-----------------------|
D|--0-----------0-------------0-------------------------------------------|

Where's the lightning x3
Now
Where's your finger's x3
Now
He can taste it x3
Now
Come and get it x3
Now


Enviada por Sem inscrição
Nº de acordes: 2