• Violão
  • Guitarra
  • Teclado
  • Cavaquinho
  • Contra-baixo
  • Bateria
  • Gaita
  • Guitar Pro
E-------------|-------------|-------------|-------------|
B-------------|-------------|-------------|-------------|
G-0-----0-----|-0-----0-----|-0-----0-----|-0-----0-----|
D---0-----0---|---0-----0---|---0-----0---|---0-----0---|
A-----2-----2-|-----3-----3-|-----5-----5-|-----5-----5-|
E-3-----3-----|-5-----5-----|-7-----7-----|-7-----7-----|

E-------------|-------------|-------------|-------------|
B-------------|-------------|-------------|-------------|
G-0-----0-----|-0-----0-----|-0-----0-----|-0-----0-----|
D---0-----0---|---2-----2---|---0-----0---|---0-----0---|
A-----7-----7-|-----2-----2-|-----2-----2-|-----2-----2-|
E-8-----8-----|-0-----0-----|-3-----3-----|-3-----3-----|


Enviada por Sem inscrição
Nº de acordes: 0