Bombay Bicycle Club

How Can You Swallow So Much Sleep

Bombay Bicycle Club

25 exibições
Tabbed by: pauli.j.f

This song consists of just one riff, played by jack.
Palm mute all of the notes hit apart from the 10-12 notes on the B string.

Tuning:EADGBe

These two notes are only played on the first time the guitar plays.
e|--------------------------------------------------------------------------|
B|-10-12--------------------------------------------------------------------|
G|--------------------------------------------------------------------------|
D|--------------------------------------------------------------------------|
A|--------------------------------------------------------------------------|
E|--------------------------------------------------------------------------|

This riff is repeated throughout the whole song.
e|--------------------------------------------------------------------------|
B|--0-5-8-10-12-0-5-8-0-3---------------------------------------------------|
G|-0---0-0-----0---0-0------------------------------------------------------|
D|--------------------------------------------------------------------------|
A|--------------------------------------------------------------------------|
E|--------------------------------------------------------------------------|

You may add in these additional notes nearer the end of the song if you get bored of that riff.
e|--------------------------------------------------------------------------|
B|--0-5-8--10-12--0-5-8-0-3-------------------------------------------------|
G|-0---0-0-12-12-0---0-0----------------------------------------------------|
D|--------------------------------------------------------------------------|
A|--------------------------------------------------------------------------|
E|--------------------------------------------------------------------------|

I have a few other Bombay Bicycle Club tabs already submitted so take a look at them if 
you think they might be useful.
Please rate and thanks for looking


Enviada por Sem inscrição
Nº de acordes: 0