Bedouin Soundclash

Walls Fall Down

Bedouin Soundclash

15 exibições
  • Violão
  • Guitarra
  • Teclado
  • Cavaquinho
  • Contra-baixo
  • Bateria
  • Gaita
  • Guitar Pro
Intro: 
e|--7----6----|--4----2----|--7----6----|--7----------|
B|--7----7----|--5----4----|--7----7----|--7----------|
G|--8----6----|--4----4----|--8----6----|--8----------|
D|------------|------------|------------|-------------|
A|------------|------------|------------|-------------|
E|------------|------------|------------|-------------|

Verse:
e|--7--7--7--7--|--6--6--7--7--|--7--7--4--4--|--6--6--6--6--|
B|--7--7--7--7--|--7--7--7--7--|--7--7--5--5--|--7--7--7--7--|
G|--8--8--8--8--|--6--6--9--9--|--8--8--4--4--|--6--6--6--6--|
D|--------------|--------------|--------------|--------------|
A|--------------|--------------|--------------|--------------|
E|--------------|--------------|--------------|--------------| x4

Chorus: Not exact amount of strums but meant to illustrate rapid strumming
e|--77777777777|--66666666666|--77777777777|--66666666666|
B|--77777777777|--77777777777|--77777777777|--77777777777|
G|--88888888888|--66666666666|--88888888888|--66666666666|
D|-------------|-------------|-------------|-------------|
A|-------------|-------------|-------------|-------------|
E|-------------|-------------|-------------|-------------|


e|--7777766666|--4444422222|--7777766666|--77777777777|
B|--7777777777|--5555544444|--7777777777|--77777777777|
G|--8888866666|--4444444444|--8888866666|--88888888888|
D|------------|------------|------------|-------------|
A|------------|------------|------------|-------------|
E|------------|------------|------------|-------------|

Verse x2

Chorus

Verse x2

Final Chorus:
e|--77777777777|--7777766666|--77777777777|--7777766666|
B|--77777777777|--7777777777|--77777777777|--7777777777|
G|--88888888888|--8888866666|--88888888888|--8888866666|
D|-------------|------------|-------------|------------|
A|-------------|------------|-------------|------------|
E|-------------|------------|-------------|------------| x2

Outro:
e|--777777777777777|
B|--777777777777777| Continue strumming until the end.
G|--888888888888888|
D|-----------------|
A|-----------------|
E|-----------------|


Enviada por Sem inscrição
Nº de acordes: 0