An Horse

Trains And Tracks

An Horse

1 exibições
  • Violão
  • Guitarra
  • Teclado
  • Cavaquinho
  • Contra-baixo
  • Bateria
  • Gaita
  • Guitar Pro
Capotraste 2
Standard Tuning
Chords relative to capo.


Verse I :
"Tick Tock"


D|--9*--7*--5*----|
A|--7---5---3---2-| x2
E|--------------3-|

"Oh my God I'll tick tock for you ..."
e|-------------|
B|-------1-----|
G|---------0---|
D|-----2-------| x4
A|---3---------|
E|-------------|

e|-------------|
B|-------1-----|
G|---------2---|
D|-----2-------| x4
A|---0---------|
E|-------------|

"But you never come true ..."

e|----------------|
B|---1*---1*------|
G|---0*---2*------|
D|---2*---2*------| x4
A|---3*---0*------|
E|----------------|


"I'm shouting out ..."

             .........played in staccato........
D|--9*--7*--5-5-5-5-5-5-5-5-------------------|
A|--7*--5*--3-3-3-3-3-3-3-3--2-2-2-2-2-2-2-2--|
E|---------------------------3-3-3-3-3-3-3-3--|



D|--9 (x8)--7 (x8)--5 (x8)--------|
A|--7-------5-------3------2 (x8)-| x2
E|-------------------------3------|

Verse II (same as I) :

D|--9*--7*----5*--------|
A|--7*---5*---3*---2*---| x2
E|----------------3*----|


"Oh my God I'll tick tock for you ..."
e|-------------|
B|-------1-----|
G|---------0---|
D|-----2-------| x4
A|---3---------|
E|-------------|

e|-------------|
B|-------1-----|
G|---------2---|
D|-----2-------| x4
A|---0---------|
E|-------------|

"But you never come true ..."


e|----------------|
B|---1*---1*------|
G|---0*---2*------|
D|---2*---2*------| x4
A|---3*---0*------|
E|----------------|

"I'm shouting out ..."

             ..........played in staccato.......
D|--9*--7*--5-5-5-5-5-5-5-5-------------------|
A|--7*--5*--3-3-3-3-3-3-3-3--2-2-2-2-2-2-2-2--|
E|---------------------------3-3-3-3-3-3-3-3--|


Break :
"And oh my God I'll tick tock for you ..."


e|----------------|
B|---1~---1~------|
G|---0~---2~------|
D|---2~---2~------| x2
A|---3~---0~------|
E|----------------|


"But you'll never come true ..."

e|---------------|
B|---1*---1*-----|
G|---0*---2*-----|
D|---2*---2*-----| x2
A|---3*---0*-----|
E|---------------|

End on C.


Enviada por Sem inscrição
Nº de acordes: 0